Halid Bešlić

Dvdesete /Verzija 3/

by: Zlatan Dickinson

Pronađi akord!

Ne znaš kako odsvirati neki od akorda pjesmi Dvdesete /Verzija 3/? Upiši akord u tražilicu i saznaj!

Traženi akord će se prikazati ovdje

Od istog izvođača

Pregledano 33527 puta
Pregledano 16253 puta
Pregledano 628 puta
Pregledano 3471 puta
Pregledano 19881 puta
Trebaš ritam za ovu pjesmu? Pronađi ga ovdje
Akordi/Tabovi:
Intro :

Gitara:     Am     Fm     C     G           3x


Violina:

|-----------------------------------------------------------------------------------|
|-------------------------------------------------8---------------------------------|
|--2--4--5----5--4--2--2h4p2--0h2--5--5--7-slide9------------------------------------|
|----------------------------------------------------10--9--7--7b--5-slide-7--------|
|-----------------------------------------------------------------------------------|
|-----------------------------------------------------------------------------------|

Am       G        Am
Od jeseni do jeseni
                    G      Am
sve u meni za tobom zazeleni
     C G  Dm              Am    C  G
a ja lud, pa mislim na tebe




opet violina : 

|-------------------------|
|-------------------------|
|--5--4--5--7--4--5p(4)2--|
|-------------------------|
|-------------------------|
|-------------------------|




Am          G        Am
Bol bolujem, pet nedelja
               G          Am
poderao sam evo pet postelja

     C G  Dm              Am    C  G
a ja lud, pa mislim na tebe



Chorus

  C                 G
Dvadeset i neka ti je godina     
     Dm   Am      G     Am
isto toliko mi je tamnica

jedna od druge je duso hladnija
jer iz svake mi zima izbija


Solo:

|--12-10--------------------------------12-10-------------------------------12---------|
|--------13-12-10---12-13--12--10-10----------13-12-10----12-13--12--10-10------10-10--|
|------------------------------------12------------------------------------------------|
|--------------------------------------------------------------------------------------|
|--------------------------------------------------------------------------------------|
|--------------------------------------------------------------------------------------|
Komentari

GodOfWar1 kaže:

hmmm...A-Em-F prvo dio..

a ref je isti kao što si napisa..moje mišljenje..sad. :)

19-02-2010 20:55