Zabranjeno pusenje

Kad Prcvatu Behari Vol.2

by: D_dur

Pronađi akord!

Ne znaš kako odsvirati neki od akorda pjesmi Kad Prcvatu Behari Vol.2? Upiši akord u tražilicu i saznaj!

Traženi akord će se prikazati ovdje

Od istog izvođača

Pregledano 7151 puta
Pregledano 29803 puta
Pregledano 13916 puta
Pregledano 6988 puta
Pregledano 4622 puta
Trebaš ritam za ovu pjesmu? Pronađi ga ovdje
Akordi/Tabovi:
intro 1 gitara
E----------------------------|------------------------------|
H----------------------------|------------------------------|
G---5-5/12-12-12-12-12\5-5-5-|---5/12-12-12\10-10-12/13\12--|
D----------------------------|------------------------------|
A----------------------------|------------------------------|
E----------------------------|------------------------------|

E-------------------------|--------------------------10/12-------|
H-------------------------|----3-4-6-3---------9/13--------12\10-|
G----3/10-10-10-10\3-3-3--|--5---------3-------------------------|
D-------------------------|--------------3/5---------------------|
A-------------------------|--------------------------------------|
E-------------------------|--------------------------------------|

E----------------------------|-------------------------------|
H----------------------------|-------------------------------|
G--10/12-12-12-12\5-5-5------|--2/12-12-12-12\10-10-12/13\12-|
D----------------------------|-------------------------------|
A----------------------------|-------------------------------|
E----------------------------|-------------------------------|


E------------------------|--------------------------------|
H------------------------|----3-4-4/6-3-----9/13----------|
G--3/10-10-10-10\3-3-3---|--5-----------3-----------------|
D------------------------|--------------------------------|
A------------------------|--------------------------------|
E------------------------|--------------------------------|

intro 2

E--------------------|-----6/8-8-6------|-------------------|
H-------8-8-6-8h9-8--|-8-8---------9-8--|-6-6-6-6-4\3-------|
G--5-5---------------|------------------|-------------3-----|
D--------------------|------------------|-------------------|
A--------------------|------------------|-------------------|
E--------------------|------------------|-------------------|

E------------------------|
H-----3-4-6-3------------|
G---5---------3-3/5------|
D------------------------|
A------------------------|
E------------------------|

Cm          A#   Cm
Kad procvatu behari
Cm          Fm    Cm
kad dunjaluk zamiri
A#          (G#)   A#
dusa ceznjom procvili:
Cm          A#     Cm
davno smo se rastali

Ovo nebo nad nama
sjena je od zastora
kula na nebesima
u nasim je prsima

Proljece je u nama
kad se topi suzama
i pustinja procvjeta
nudec' sliku Dzenneta

Kad procvatu behari
kad dunjaluk zamiri
dusa ceznjom procvili:
davno smo se rastali

Ovo nebo nad nama
sjena je od zastora
kula na nebesima
u nasim je prsima

Solo

E----------------------------------------|
H----------------------------9-13-13-11\-|
G---5-5/12-12-12-12-12\5-5-5-------------|
D----------------------------------------|
A----------------------------------------|
E----------------------------------------|

E-----------------------------10b12-8-6--------|
H---------------------------------------9-8h9p8|
G---5/12-12-12\10-10-12/13\12------------------|
D----------------------------------------------|
A----------------------------------------------|
E----------------------------------------------|

E------------------------------------------|--------------------||
H------------------------------------------|----3-4-6-3----------|
G----3/10-10-10-10\3-3-3-5-3-5-3---3-5/7-3-|--5---------3-3/5----|
D--------------------------------5---------|---------------------|
A------------------------------------------|---------------------|
E------------------------------------------|---------------------|
Komentari
Još nema komentara