Halid Bešlić

Ta je žena varala me

by: Šimek

Pronađi akord!

Ne znaš kako odsvirati neki od akorda pjesmi Ta je žena varala me? Upiši akord u tražilicu i saznaj!

Traženi akord će se prikazati ovdje

Od istog izvođača

Pregledano 7386 puta
Pregledano 84832 puta
Pregledano 103271 puta
Pregledano 19850 puta
Pregledano 21968 puta
Trebaš ritam za ovu pjesmu? Pronađi ga ovdje
Akordi/Tabovi:
C                    Dm              Am
Svakom  sunce  sija  svakom  cvjeta cvijece
G                     F      G          Am       
samo ja  na  svijetu  zivim  sam  bez  srece
C                    Dm              Am
Svakom  sunce  sija  svakom  cvjeta cvijece
G                     F      G          Am       G
samo ja  na  svijetu  zivim  sam  bez  srece

Ref.2x
C                         Dm            Am
Ta  je  zena  varala  me, ta  je  zena  lagala  me
C                            G             F  G     Am   G
Svakog trena  ljubav  krala i  drugom  je  poklanjala 

Svako  nekog  voli tajne  mu  otkriva
samo  moje  srce bol  nosi  i  sniva

Sve  su  moje  zore suzom  zalivene
jer  ona  sa  drugim sad zivi bez mene




Šimek!
Komentari

jakovblazevic kaže:

Molio bih aki netko zna uvod ove pjesme ..hvala..

28-04-2010 04:22

FieryGuitar kaže:

evo uvod,,nemojte zamjeriti jer sam samouki gitarista i nisam muzicki obrazovan da bih mogao tehnicki prikazati tabove ,,najjednostavnije sam pokusao da ih ispisem pa pokusajte mozda vam se svidi,,,po sluhu sam skidao,, negdje je mozda potreban h,v ili neki dr.kako sam znao tako sam ispisao,,slobodno me ispravite kritike su dobro dosle,,,:)


|------------------------------------------
|----------------------10-12-10-12-10---------
|--------------9-11p11---------------12-10-10--
|---9-9-9-9-12---------------------------------
|--------------------------------------------
|------------------------------------------



|------------------------------------------
|--------------------------------------------
|-----7-9--9-9-9-9-9~7-----------------------
|-----------------------11-9~9-~11-9s7-7-7~9-
|--------------------------------------------
|-------------------------------------------

07-10-2011 15:27

FieryGuitar kaže:

umjesto ovog dijela gdje pise 10-10 ide 11-11
greska 12-11-11-
|------------------------------------------
|----------------------10-12-10-12-10---------
|--------------9-11p11---------------12-11-11--
|---9-9-9-9-12---------------------------------
|--------------------------------------------
|------------------------------------------



|------------------------------------------
|--------------------------------------------
|-----7-9--9-9-9-9-9~7-----------------------
|-----------------------11-9~9-~11-9s7-7-7~9-
|--------------------------------------------
|-------------------------------------------

07-10-2011 15:30

jakovblazevic kaže:

Akordi/Tabovi:
07-10-2011 09:30
FieryGuitar:umjesto ovog dijela gdje pise 10-10 ide 11-11
greska 12-11-11-
|------------------------------------------
|----------------------10-12-10-12-10---------
|--------------9-11p11---------------12-11-11--
|---9-9-9-9-12---------------------------------
|--------------------------------------------
|------------------------------------------



|------------------------------------------
|--------------------------------------------
|-----7-9--9-9-9-9-9~7-----------------------
|-----------------------11-9~9-~11-9s7-7-7~9-
|--------------------------------------------
|-------------------------------------------

07-12-2011 04:37

jakovblazevic kaže:

Akordi/Tabovi:
Samo sam kopirao i hvala ti FieryGuitar

07-12-2011 04:51