Parni Valjak

Jesen u meni

by:

Pronađi akord!

Ne znaš kako odsvirati neki od akorda pjesmi Jesen u meni? Upiši akord u tražilicu i saznaj!

Traženi akord će se prikazati ovdje

Od istog izvođača

Pregledano 7069 puta
Pregledano 1415 puta
Pregledano 9030 puta
Pregledano 650 puta
Pregledano 19555 puta
Trebaš ritam za ovu pjesmu? Pronađi ga ovdje
Akordi/Tabovi:
SOLO:
E|-----------|-------------|-----------|-------|-----------
B|-----------|-------------|-----------|-1-0---|-----------
G|---------2-|-------3-2-0-|---------3-|-------|---------2-
D|-2-2-3-2---|-2-3-2-------|-2-2-3-2---|-----2-|-2-2-3-2---
A|-----------|-------------|-----------|-------|-----------
E|-----------|-------------|-----------|-------|-----------

E|-------------|------------|---------|---------------|---
B|-------------|------------|-2-0h1---|-3-3-3h5-3/5-3-|-1-
G|-------3-2-0-|----------3-|---------|---------------|---
D|-2-3-2-------|--2-2-3-2---|-------2-|---------------|---
A|-------------|------------|---------|---------------|---
E|-------------|------------|---------|---------------|---

E----0-|-0-------0-|-1-1h3-1-1h3-1-|-----0-------|-1-------
B--3---|---3-1-3---|---------------|-1-3---3-1-0-|---3-1-3-
G------|-----------|---------------|-------------|---------
D------|-----------|---------------|-------------|---------
A------|-----------|---------------|-------------|---------
E------|-----------|---------------|-------------|---------

E-|-0-----|---------|
B-|---3-1-|-3-1-0---|
G-|-------|-------2-|
D-|-------|---------|
A-|-------|---------|
E-|-------|---------|


uzivajte
Komentari
Još nema komentara