Divlje Jagode

Krivo Je More (solo)

by:

Pronađi akord!

Ne znaš kako odsvirati neki od akorda pjesmi Krivo Je More (solo)? Upiši akord u tražilicu i saznaj!

Traženi akord će se prikazati ovdje

Od istog izvođača

Pregledano 33229 puta
Pregledano 6246 puta
Pregledano 19422 puta
Pregledano 54926 puta
Pregledano 13979 puta
Trebaš ritam za ovu pjesmu? Pronađi ga ovdje
ev solo ove pjesme za pocetnike....
Akordi/Tabovi:
E|--9--7--5--4--5--7--9--10--10--9---------9--7------------
B|----------------------------------10---------------------
G|--------------------------------------9------------------
D|---------------------------------------------------------
A|---------------------------------------------------------
E|---------------------------------------------------------

E|--9--10--9--2--5--3--2--0--0--0--0------------------------
B|------------------------------------3--1--0---------------
G|---------------------------------------------2------------
D|----------------------------------------------------------
A|----------------------------------------------------------
E|----------------------------------------------------------

Stavio sam bez ikakvih slova, nek doda ako neko hoce na pocetku kod 9 nek bude 9b itd....
Samo jos vi skinite ritam... uzivajte..
Komentari

juanes kaže:

extra ;D

02-11-2009 13:35

ĐEKI kaže:

ja misli da imaš par grešaka E|--9--7--5--4--5--7--9--10--10--9---------9--7------------
B|----------------------------------10---------------------
G|--------------------------------------9------------------
D|---------------------------------------------------------
E|--9--10--9----------------------------------------
B|------------9--12--10--9--7--7--7--7-----------------------------
G|-------------------------------------9--7--6----------------
D|----------------------------------------------9
------------

09-11-2009 20:15

ĐEKI kaže:

molimo kupite si bubnjeve jer baš i ne zvučiš dobro

09-11-2009 22:14

trulex_bobo kaže:

ljudi kako se citaju ova sola mozeli mi ko malo to objasniti??

28-11-2009 01:07

BOKYMAN kaže:

nije nesto al se da svirat

11-01-2010 23:48

Elvis Presley kaže:

ti sviras ok ali tabovi ti nevaljaju koliko vidim

14-01-2010 19:01

ja_slash kaže:

žice su E,B,G,D,A,E i ti brojevi su ti polja koja tribas svirat.

27-06-2012 16:53