Miroslav Škoro

Ne vjeruje srce pameti

by: Miroslav Škoro

Pronađi akord!

Ne znaš kako odsvirati neki od akorda pjesmi Ne vjeruje srce pameti? Upiši akord u tražilicu i saznaj!

Traženi akord će se prikazati ovdje

Od istog izvođača

Pregledano 2470 puta
Pregledano 11412 puta
Pregledano 22875 puta
Pregledano 44522 puta
Pregledano 11617 puta
Trebaš ritam za ovu pjesmu? Pronađi ga ovdje
Akordi/Tabovi:
Ne vjeruje srce pameti - Miroslav Škoro

                                                  Em
E-7-7-5-7-8-7-5-3----2-3-8-7-5-3-2-0--------0-2-3-0-----------
H---------------------------------------4-4-------------------
G-------------------------------------------------------------
D-------------------------------------------------------------

Em                             C
Tece noc k'o mutna rijeka oj, ljubavi ti daleka
H7                   Em C,H
opet sam ti cudno usnio
Em                      C
vidjeh tebe pored mene, nase kceri nerodjene
H7                 Em E,E7   
u goloj se vodi budio.
Am   D  H7               Em
E…e…e.j,ne vjeruje srce pameti
Am     D H7               Em
E….e….ej,pa me tera tamo gdje si ti

Za pokoru sto te volim imenom se tvojim molim
tebe molim, Boga preklinjem
gazio bi' hladan kameni po trnju zivi plamen
samo dahom da te dotaknem

Tece noc k'o mutna rijekaoj, ljubavi ti daleka
opet sam ti cudno usnio
sretna zvijezda padalica,pala preko tvoga lica
a nisam je jadan video
Komentari

simek kaže:

odlično!!

14-10-2009 21:38

simek kaže:

18-10-2009 18:58

DR761972 kaže:

Hvala

22-02-2010 03:50

guitar hero'95 kaže:



eto moj komentar

14-07-2010 11:35

IbanneZ95 kaže:

sve super samo mozda u refrenu prije H7 moglo bi ici H da bude potpunije

29-01-2014 23:02

Miroslav1391 kaže:

Dobro je, samo uvodna deonica na E1 msm da ide ovako
Akordi/Tabovi:
E-7-7-6-7-8-7-5-3----2-3-8-7-5-3-2-0--------0-2-3-0-----------
H---------------------------------------4-4-------------------
G-------------------------------------------------------------
D-------------------------------------------------------------

08-02-2014 16:15