Parni Valjak

Mjenjam Se

by:

Pronađi akord!

Ne znaš kako odsvirati neki od akorda pjesmi Mjenjam Se? Upiši akord u tražilicu i saznaj!

Traženi akord će se prikazati ovdje

Od istog izvođača

Pregledano 548 puta
Pregledano 1468 puta
Pregledano 9374 puta
Pregledano 5601 puta
Pregledano 9997 puta
Trebaš ritam za ovu pjesmu? Pronađi ga ovdje
Akordi/Tabovi:
E |----------------------------------------------
H |----------5-3-2-0-----------------------------
G |-----2---------------------1------4-6-4-2-----
D |---2---2-----------------2---2----------------
A |-0---------------------2----------------------
E |----------------------------------------------




E |-------------------------------2---------------
H |------------2-3-2--------------3-5---3-2 0-----
G |-----2------------4-2--------2-------------2---
D |---4---4-----------------0---------------------
A |-4---------------------------------------------
E |-----------------------------------------------

samo da napomenem da nisam pisao hammer on i pull off jer mi se neda mučiti sa tim pisanjem više a koga zanima muže i sam skužiti di je šta ...

tabovi nisu 100% točni(naročito D ) ali ja sam tako skinuo pjesmu nadam se da sam pomogao
Komentari

Žare kaže:

E |-----------------------------------------------
H |----------5-3-2-0------------------------------
G |-----2---------------------------4-6-4-2-------
D |---2---2-----------------2---------------------
A |-0---------------------2---2-------------------
E |---------------------0-------------------------

E |-----------------------------------------------
H |------------2-3-2--------------3-7-5-3-2 0-----
G |-----2------------0----------2-----------------
D |---4---4------------0-----0--------------------
A |-4---------------------------------------------
E |-----------------------------------------------

12-10-2009 18:39

Žare kaže:

malo sam promjenio jer mislim da je ovo točnije

12-10-2009 18:39