Artic Monkeys

Cigarette Smoke

by:

Pronađi akord!

Ne znaš kako odsvirati neki od akorda pjesmi Cigarette Smoke? Upiši akord u tražilicu i saznaj!

Traženi akord će se prikazati ovdje

Od istog izvođača

Pregledano 1493 puta
Pregledano 1660 puta
Pregledano 1667 puta
Pregledano 3168 puta
Pregledano 3279 puta
Trebaš ritam za ovu pjesmu? Pronađi ga ovdje
Akordi/Tabovi:
intro
e-------I-------|I
b-------I-------|I
g-------I-------|I
D-7-7-7-I-------|I
A-7-7-7-I-------|I
E-5-5-5-I-10^12-|I

e-----------------------------------------------------------------------------------|
b-----------------------------------------------------------------------------------|
g-----------------------------------------------------------------------------------|
D-7-7-7-------------7-7-7-------------------7-7-7----------------7-7-7--------------|
A-7-7-7---------15--7-7-7----------17^19^17-7-7-7----------15-17-7-7-7-17^19-17-15--|
E-5-5-5-15-15-17----5-5-5-15-15-17----------5-5-5-15-15-17-------5-5-5--------------|

Verse
e----------------------------|
b----------------------------|
g----------------------7-7-7-|
D-7-7-7--7-7-7--3-3-3--7-7-7-|
A-7-7-7--7-7-7--3-3-3--5-5-5-|
E-5-5-5--5-5-5--1-1-1--------|
   A5     A5     F5     D5

A               A
  Get out the way, mister
            F
With your short sharp tips
              D
No, I won't read your lips right now
A             A
  And baby, hey
                    F
You send a shiver down my spine
             D
But do you read my mind
Do you...
A             A               F
  And you're looking pretty suspicious
      D
And probably planning a heist
A         A                   F
  He's wanting to go to the strippers
     D
It makes him feel all nice


Refrain

just play powerchords

A
Cigarette smoke yeah
C                         E(fret 7)
The cigarette smoke in your eyes
E    D   E  G    E   D
Watching a stripper and
A
Smacking a bloke yeah
C                    E        E D E G E D
Smacking a bloke here tonight


Verse again same timing

Get out the way, mister
With your short sharp tips
No, I won't read your lips right now
And baby, hey
You send a shiver down my spine
But do you read my mind
Do you...

He's prob'ly got stopped by a panda
For speeding on his way there
... flashing of digital cameras
From tourists in trafalgar square

Refrain

(Cigarette smoke yeah)
The cigarette smoke in your eyes
Watching a stripper and
(Snortin' some coke yeah)
Snortin' some coke off her thighs
Bla-bla-bla-bla-bla-bla...

Bridge

A /  C  /  E  / A  / C  / E /   E D E G E D

(Cigarette smoke yeah)
The cigarette smoke in your eyes
Watching a stripper and
(Smacking a bloke yeah)
Smacking a bloke here tonight
And I just can't see for the
(Cigarette smoke yeah)
The cigarette smoke in your eyes
Watching a stripper and
(Snortin' some coke yeah)
Snortin' some coke off her thighs
Lalalalalala laaaaaaaoooo
Oww
Komentari
Još nema komentara