Artic Monkeys

Brianstorm

by:

Pronađi akord!

Ne znaš kako odsvirati neki od akorda pjesmi Brianstorm? Upiši akord u tražilicu i saznaj!

Traženi akord će se prikazati ovdje

Od istog izvođača

Pregledano 1661 puta
Pregledano 3169 puta
505
Pregledano 1945 puta
Pregledano 2276 puta
Pregledano 1683 puta
Trebaš ritam za ovu pjesmu? Pronađi ga ovdje
Akordi/Tabovi:
1st guitar
e|--------------------------------------------|
B|--------------------------------------------|
G|-1010101010101010101010101010101010---------|
D|-1010101010101010101010101010101010---------|
A|-8-8-8-8-8-8-8-8-8-8-8-8-8-8-8-8-8----------|
E|--------------------------------------------|

2nd guitar comes in and this riff is played on top
e|--------------------------------------------|
B|--------------------------------------------|
G|-1010101010101010101010101010101010---------|
D|-1010101010101010101010101010101010---------|
A|-8-8-8-8-8-8-8-8-8-8-8-8-8-8-8-8-8----------|
E|--------------------------------------------|


e|---------------|
B|---------------| (x8)
G|---------------|   
D|---------------|     
A|-8-8-8-8-8-----|
E|-----------9-8-|

Then


e|-----------------------------------|
B|-----------------------------------|
G|-----------------------------------|   
D|-----------------------------------|     
A|-88888-4-33333--44444-6-77777-10-8-|
E|-----------------------------------|


Verse

I guess both guitars are playing the same thing but ones either playing the root or is just
Playing with a higher tone

e|-----------------------|
B|-----------------------|
G|-10-6-5--6-6-8-9-12-10-|   
D|-10-6-5--6-6-8-9-12-10-|     
A|--8-4-3--4-4-6-7-10--8-|
E|-----------------------|

e|-----------------------------------|
B|-----------------------------------|
G|-----------------------------------|   
D|-----------------------------------|     
A|-88888-4-33333--44444-6-77777-10-8-|
E|-----------------------------------|

e|-----------------------|
B|-----------------------|
G|-10-6-5--6-6-8-9-12-10-|   
D|-10-6-5--6-6-8-9-12-10-|     
A|--8-4-3--4-4-6-7-10--8-|
E|-----------------------|

2nd guitar plays this

e|-13-13-13-13-13-------------|
B|-13-13-13-13-13-13----------| (x3)
G|-------------------15-13-12-|   
D|----------------------------|     
A|----------------------------|
E|----------------------------|

e|-13-13-13-13-13--12-12-12-12-12-|
B|-13-13-13-13-13--12-12-12-12-12-|
G|--------------------------------|   
D|--------------------------------|     
A|--------------------------------|
E|--------------------------------|

you can play it like 5th chord aswell and then add the
octave root if u want

e|-13-13-13-13--------------------|
B|-13-13-13-13-13-----------------|
G|-10-10-10-10----15-13-12--------|   
D|--------------------------------|     
A|--------------------------------|
E|--------------------------------|

or

e|--------------------------------|
B|18-18-18------------------------|
G|17-17-17--17-15-----------------|   
D|15-15-15--------18-17-----------|     
A|--------------------------------|
E|--------------------------------|

Pre chorus

e|----------------|
B|----------------|
G|----------------|   
D|----------------|     
A|-3-----3-3--3-4-|
E|--4-1-----4-----|

2nd guitar

e|-----------------|
B|-----------------|
G|-555555--999999--|   
D|-555555--999999--|     
A|-333333--777777--|
E|-----------------|


Chorus

e|--------------------------------|
B|--------------------------------|
G|--------------------------------|   
D|--------------------------------|     
A|-----------------4-3--------4-3-|
E|-1-1-1-1-1-4-4-4-----3--1-4----4|

e|----------------------|
B|----------------------|
G|-10-10-10-10-10-11----|   
D|-10-10-10-10-10-11----|     
A|--8--8--8--8--8--9----|
E|----------------------|

e|----------------------|
B|----------------------|
G|-10-10-10-10-10-11----|   
D|-10-10-10-10-10-11----|     
A|--8--8--8--8--8--9----|
E|----------------------|


e|--------------------------------|
B|--------------------------------|
G|--------------------------------|   
D|--------------------------------|     
A|-----------------4-3--------4-3-|
E|-1-1-1-1-1-4-4-4-----3--1-4----4|


e|----------------------|
B|----------------------|
G|-10-10-10-10-10-11----|   
D|-10-10-10-10-10-11----|     
A|--8--8--8--8--8--9----|
E|----------------------|


2nd verse

1st guitar
e|-----------------------|
B|-----------------------|
G|-10-6-5--6-6-8-9-12-10-|   
D|-10-6-5--6-6-8-9-12-10-|     
A|--8-4-3--4-4-6-7-10--8-|
E|-----------------------|


2nd guitar
e|-13-13-13-13-13-------------|
B|-13-13-13-13-13-13----------|
G|-------------------15-13-12-|   
D|----------------------------|     
A|----------------------------|
E|----------------------------|


Ending


1st guitar
e|--------------------------------------------|
B|--------------------------------------------|
G|-1010101010101010101010101010101010---------|
D|-1010101010101010101010101010101010---------|
A|-8-8-8-8-8-8-8-8-8-8-8-8-8-8-8-8-8----------|
E|--------------------------------------------|

2nd
e|--------------------------------------------|
B|--------------------------------------------|
G|-1010101010101010101010101010101010---------|
D|-1010101010101010101010101010101010---------|
A|-8-8-8-8-8-8-8-8-8-8-8-8-8-8-8-8-8----------|
Komentari
Još nema komentara