Uriah Heep

Come Back To Me

by: rock forever

Pronađi akord!

Ne znaš kako odsvirati neki od akorda pjesmi Come Back To Me? Upiši akord u tražilicu i saznaj!

Traženi akord će se prikazati ovdje

Od istog izvođača

Pregledano 2364 puta
Pregledano 2633 puta
Pregledano 1968 puta
Pregledano 11732 puta
Pregledano 3467 puta
Trebaš ritam za ovu pjesmu? Pronađi ga ovdje
Akordi/Tabovi:
tab

intro:
e -----------------------------------------------------------------
B ---8v----4--6--8--8v----11--9--8--9v----8--9--11v----13--15--16--
G -----------------------------------------------------------------
D -----------------------------------------------------------------
A -----------------------------------------------------------------
E -----------------------------------------------------------------

e --------------------------------------------------------
B ---16--15--13--16----13--15--18----18/15----16--18--16--
G --------------------------------------------------------
D --------------------------------------------------------
A --------------------------------------------------------
E --------------------------------------------------------

verse and chorus:
e -----------------------------3------------------1---------------------------
B ----------8-8--------------4---4------------------1----------------6--------
G --------8-----8----------5-------5------------1-----3------------7---7------
D ------8---------8------5-----------5--------3---------3--------8-------8----
A ----6-------------6--3---------------3----3-------------1----8-----------8--
E ----------------------------------------1------------------6----------------

bridge:
e ----------------------------------------------
B ----------------------------------------------
G --12-12-12-12--10-10-10-10--8-8-8-8-8-8-8-10--
D --12-12-12-12--10-10-10-10--8-8-8-8-8-8-8-10--
A --10-10-10-10--8--8--8--8---6-6-6-6-6-6-6-8---
E ----------------------------------------------

outro:
e --------------------------------------------
B --12--8-10/12-12--8-10/12-13--13/7-8-10-12--
G --------------------------------------------
D --------------------------------------------
A --------------------------------------------
E --------------------------------------------

e --------------------------------------------
B --12--8-10/12-12--8-10/12-13--13/7-8-10-12--
G --------------------------------------------
D --------------------------------------------
A --------------------------------------------
E --------------------------------------------

akordi

  C            Am
Alone again, I feel so alone again
          Dm                     G  (C G)
With this emptiness I just can't hide
C                 Am
Picture me with a broken heart
Dm                        G    (C G)C
See the tears run down my face

                 G/B Am
Everything I had has gone
Everything is gone
F                          C G C
Loneliness still lingering on
                     G/B Am
Everything I thought was mine
     F
Come back to me
                C        G
Can't we try it one more time
     C         (D G)
Come back to me

            D                    C   (D G)
I know I'll find another love in time
                     D
But you'll always be there
                  C    G
In the back of my mind
The power of love
          Bm       F
Can bring such pain
                  G
I still love you, I just love you

  C            Am               Dm
Alone again, I'm so alone again
                    G          (C G) C
With nothing but you on my mind               
Can't you see
            Am             Dm
What you've done to my life                   
What can I do to
        G         (C G)C
Win you back again
Komentari
Još nema komentara