Toma Zdravković

Tužno leto

by: NeXa*

Pronađi akord!

Ne znaš kako odsvirati neki od akorda pjesmi Tužno leto? Upiši akord u tražilicu i saznaj!

Traženi akord će se prikazati ovdje

Od istog izvođača

Pregledano 2769 puta
Pregledano 9176 puta
Pregledano 41092 puta
Pregledano 8879 puta
Pregledano 38628 puta
Trebaš ritam za ovu pjesmu? Pronađi ga ovdje
Akordi/Tabovi:
TUŽNO LETO
Toma Zdravkovic


Intro: G#,D#,Fm,D#,C#,D#,C#,Bm,C


Fm
Proveli smo leto, zajedno smo bili
            D# 
Šetali kraj mora i sanjali snove
           C#             D#
a, more ko more nemirno i plavo
         Bm             C
kao kosa tvoja, kao oci tvoje
           Fm             D#
a, more ko more nemirno i plavo
         C#             C      C-Bm-C-Fm-D#
kao kosa tvoja, kao oci tvoje


G#                          D#
Evo vec je jesen a tebe još nema
           Bm    D#           G#
sigurno si negde drugu ljubav srela
Fm                         D#
a ja sivu jesen zaminih za leto
              C#   Bm         C
pa proklinjem more i to tužno leto //2x


Tužno moje leto gde je ona sada
Ova siva jesen, ona tako mlada
Može da zaluta kao jagnje malo
Milo moje sunce gde si zalutalo //2x
Komentari

HERDA kaže:

E imali neko solo od ove pjesme??

25-08-2009 13:37

nexa kaže:

E||------------------------------------------|
B||-----13-13---13-13-13-13-13---13-11-13----|
G||------------------------------------------|
D||------------------------------------------|
A||------------------------------------------|
E||------------------------------------------|

-------------11-11-9-8-8----6-4-6----|-------6-6-6-6-6-6-6----6-4-6----|
-------13-14-------------------------|---------------------------------|
-------------------------------------|---------------------------------|
-------------------------------------|---------------------------------|
-------------------------------------|---------------------------------|
-------------------------------------|---------------------------------|

-------6-8-9---9-8-6-6---4-3-4----|-------4-4-4---4---4-4-4----4-3-4----|
----------------------------------|-------------------------------------|
----------------------------------|-------------------------------------|
----------------------------------|-------------------------------------|
----------------------------------|-------------------------------------|
----------------------------------|-------------------------------------|


-------4-6-8---8-6-4-4---3-1-3-------|--3---3-4-6--4-3-4--3-1-3--1---|
-------------------------------------|-----------------------------4-|
-------------------------------------|-------------------------------|
-------------------------------------|-------------------------------|
-------------------------------------|-------------------------------|
-------------------------------------|-------------------------------|

--1-----------------------||
-----4-2----1-2-1---------||
---------3----------------||
--------------------------||
--------------------------||
--------------------------||

Izvoli...

25-08-2009 21:54

harison kaže:

RITAM?????

14-01-2010 15:11

AMKO kaže:

pa malo poslusas... ritam u strofi ti je samo dole a u refenu malo po sluhu dodas :D

10-04-2011 22:47

shlogie.cvetkovic@gmail. kaže:

nidje veze

10-11-2011 00:26

Dzuky96 kaže:

nije ti dobar ovaj solo nexo

19-03-2012 16:21

Dzuky96 kaže:

e izvini ipak je dobar, nisu mi bile nastimovane zice moj mladji brat ima 3 god pa mi rastimovao

20-03-2012 16:50

armann kaže:

e jebo ti ritam koji je samo dole prijatelju

15-04-2012 04:35

Suki-95 kaže:

jel zna neko kako ide do neklen tacan solo ove pjesme

27-07-2012 15:07