Aerosmith

Sweet Emotion Bass Tab

by:

Pronađi akord!

Ne znaš kako odsvirati neki od akorda pjesmi Sweet Emotion Bass Tab? Upiši akord u tražilicu i saznaj!

Traženi akord će se prikazati ovdje

Od istog izvođača

Pregledano 9501 puta
Pregledano 1202 puta
Pregledano 1592 puta
Pregledano 6314 puta
Pregledano 1286 puta
Trebaš ritam za ovu pjesmu? Pronađi ga ovdje
Akordi/Tabovi:
Intro
                                                            21x
G||-----------12----------14----------|---------------------||
D||*----------------------------------|--12--------11------*||
A||*--12--12------12--12------12--12--|------12-12-----12--*||
E||-----------------------------------|---------------------||

Verse 1 ( the high A is the pickup, only play 1st time)

                                                      3x
---------------------------|---------------------------|
*---------7--------7-------|--------7--------7-----7--*|
*--12--0-----0--0-----0----|--------------------0-----*|
---------------------------|--3/-5-----3/-5------------|
                       

Interlude (Try embellishing, adding fills with the open E)
         
                                         3x
----------------------------------------||
*--------------------------------------*||
*--5h-3--------------------------------*||
---------5--2--2--2--3--3--3--4--4--5---||

Verse 2
                                                      3x
---------------------------|---------------------------|
*---------7--------7-------|--------7--------7-----7--*|
*------0-----0--0-----0----|--------------------0-----*|
---------------------------|--3/-5-----3/-5------------|


Interlude                               3x
----------------------------------------||
*--------------------------------------*||
*--5h-3--------------------------------*||
---------5--2--2--2--3--3--3--4--4--5---||


Chorus                                                   3x
|-----------12----------14----------|---------------------||
|*----------------------------------|--12--------11------*||
|*--12--12------12--12------12--12--|------12-12-----12--*||
|-----------------------------------|---------------------||

Verse 3   
                                                     3x
---------------------------|---------------------------|
*---------7--------7-------|--------7--------7-----7--*|
*------0-----0--0-----0----|--------------------0-----*|
---------------------------|--3/-5-----3/-5------------|

Interlude                               3x
----------------------------------------||
*--------------------------------------*||
*--5h-3--------------------------------*||
---------5--2--2--2--3--3--3--4--4--5---||

Verse 4
-----------------------------------|
*---------------------------------*|
*--5-----------3h-0-----0---------*|
------5--5--5--------3------/3-----|

Interlude                               3x
----------------------------------------||
*--------------------------------------*||
*--5h-3--------------------------------*||
---------5--2--2--2--3--3--3--4--4--5---||

Outro (Repeat till end)
|---------------------------------||
|*-------------------------------*||
|*--------5-----7--7-------------*||
|---0--0-----0--------5--0-3--4---||

Fade Out.
Komentari
Još nema komentara