A Day To Remember

The Plot To Bomb The Panhandle Bass Tab

by:

Pronađi akord!

Ne znaš kako odsvirati neki od akorda pjesmi The Plot To Bomb The Panhandle Bass Tab? Upiši akord u tražilicu i saznaj!

Traženi akord će se prikazati ovdje

Od istog izvođača

Pregledano 1121 puta
Pregledano 1006 puta
Pregledano 1088 puta
Pregledano 1091 puta
Pregledano 1193 puta
Trebaš ritam za ovu pjesmu? Pronađi ga ovdje
Akordi/Tabovi:
Tunning (low to High) CGCF


[-----------------------------------------]x4
[-----------------------------------------]
[-----------------------------------------]
[--7777---------7777------73--------------]

[-----------------------------------------]
[-----------------------------------------]
[--0--0023-----0h3------------------------]
[---------2--22---3~~~--------------------]

[-----------------------------------------]\
[-----------------------------------------] \
[-----------------------------------------]  \
[--7-7-77--2-2-22--3-3-33--3-3-33---------]   \
                                              x2 second time hold the       
[-----------------------------------------]   /last 3
[-----------------------------------------]  /
[----------3-3-33-------------------------] /
[--7-7-77----------3----------------------]/

[-----------------------------------------]\
[-----------------------------------------] \
[-----------------------------------------]  \
[-33-33-33-33-33333--77-77-77-77-77777----]   \
                                               x2
[-----------------------------------------]   /
[-----------------------------------------]  /
[--------------------------33-33-33333----] /
[-33-33-33-33-33333--77-77----------------]/

[-----------------------------------------]
[-----------------------------------------]
[-----------------------------------------]
[-3~~~--------------3~~~------------------]

[-----------------------------------------]\
[-----------------------------------------] \
[-----------------------------------------]  \
[-7-77-777-777-777---3-33-333-333-333-----]   \
                                               x2
[-----------------------------------------]   /
[-----------------------------------------]  /
[-3-33-333-333-333------------------------] /
[------------------5-55-555-6-66-666------]/

then repeat from the top
and then after the second time

[-----------------------------------------]
[-----------------------------------------]
[-----------------------------------------]
[-3~~~~-------3~~--7~~--3~~--7~~----------]

[-----------------------------------------]x2
[-----------------------------------------]
[-----------------------------------------]
[-333-333-333-333-777-777-777-777---------]

[-----------------------------------------]x2
[-----------------------------------------]
[-----------------------------------------]
[-7-----2-----3~------7-----2-----3~------]

[-----------------------------------------]
[-----------------------------------------]
[-----------------------------------------]
[-7---2---3-333--7---2---3-3\55----------]

[-----------------------------------------]x2
[-----------------------------------------]
[-----------------------------------------]
[--7777---------7777------73--------------]

then end on

[-----------------------------------------]
[-----------------------------------------]
[-----------------------------------------]
[--7~~~~----------------------------------]
Komentari
Još nema komentara