A Day To Remember

Monument Bass Tab

by:

Pronađi akord!

Ne znaš kako odsvirati neki od akorda pjesmi Monument Bass Tab? Upiši akord u tražilicu i saznaj!

Traženi akord će se prikazati ovdje

Od istog izvođača

Pregledano 1006 puta
Pregledano 1490 puta
Pregledano 1091 puta
Pregledano 1427 puta
Pregledano 1038 puta
Trebaš ritam za ovu pjesmu? Pronađi ga ovdje
Akordi/Tabovi:
Key:
~~~~~ = Let the note ring
/ = Slide up

Intro (Begins with guitars)
F|---------------------------------------------------------------|
C|---------------------------------------------------------------|
G|----------------------------------0000-0000-2/3333333333333333-|
C|3333333333333333-5555555555555555------------------------------|

F|---------------------------------------------------------------|
C|---------------------------------------------------------------|
G|----------------------------------0000-0000-2/3333333333333333-|
C|3333333333333333-5555555555555555------------------------------|

Verse 1 (It's Monday morning, and I would kill for a chance to drive...)
F|------------------------------------------------------|
C|------------------------------------------------------|
G|------------------------------------------------------|
C|333-333-333333333-333-333333333-777-777-777777777-777-|

F|------------------------------------------------------|
C|------------------------------------------------------|
G|------------------------------------------------------|
C|333-333-333333333-333-333333333-777-777-777777777-777-|

Chorus 1 (Miles away, and I wish it didn't mean so much to me...)
F|---------------------------------------------------------------|
C|---------------------------------------------------------------|
G|----------------------------------0000-0000-2/3333333333333333-|
C|3333333333333333-5555555555555555------------------------------|

F|---------------------------------------------------------------|
C|---------------------------------------------------------------|
G|----------------------------------0000-0000-2/3333333333333333-|
C|3333333333333333-5555555555555555------------------------------|

Break
F|---------------|
C|---------------|
G|---------------|
C|3~~~~~~~~-3333-|

Verse 2 (We're getting older, I've started fear for my life...)
F|----------------------------------------|
C|----------------------------------------|
G|----------------------------------------|
C|333-333-333-333-333-777-777-777-777-777-|

F|----------------------------------------|
C|----------------------------------------|
G|----------------------------------------|
C|333-333-333-333-333-777-777-777-777-777-|

F|----------------------------------------|
C|----------------------------------------|
G|----------------------------------------|
C|333-333-333-333-333-777-777-777-777-777-|

F|----------------------------------------|
C|----------------------------------------|
G|----------------------------------------|
C|333-333-333-333-333-777-777-777-777-777-|

Chorus 2 (Miles away, and I wish this didn't mean so much to me...)
F|---------------------------------------------------------------|
C|---------------------------------------------------------------|
G|----------------------------------0000-0000-2/3333333333333333-|
C|3333333333333333-5555555555555555------------------------------|

F|---------------------------------------------------------------|
C|---------------------------------------------------------------|
G|----------------------------------0000-0000-2/3333333333333333-|
C|3333333333333333-5555555555555555------------------------------|

Bridge (Twenty bucks says you'll remember me...)
F|---------------------------------------------------------------------|
C|---------------------------------------------------------------------|
G|---------------------------------------------------------------------|
C|0000000000000-222-3333333333333333-7777777777777777-5555555555555555-|

F|---------------------------------------------------------------------|
C|---------------------------------------------------------------------|
G|---------------------------------------------------------------------|
C|0000000000000-222-3333333333333333-7777777777777777-5555555555555555-|

F|---------------------------------------------------------------------|
C|---------------------------------------------------------------------|
G|---------------------------------------------------------------------|
C|0000000000000-222-3333333333333333-7777777777777777-5555555555555555-|

F|---------------------------------------------------------------------|
C|---------------------------------------------------------------------|
G|---------------------------------------------------------------------|
C|0000000000000-222-3333333333333333-7777777777777777-5555555555555555-|

Outro Pt.1 (And I'll scream so loud that everyone in this place...)
F|----------------------------------------------------|
C|----------------------------------------------------|
G|----------------------------------------------------|
C|000-000-02333-333-777777777777777-55555555555555555-|

F|----------------------------------------------------|
C|----------------------------------------------------|
G|----------------------------------------------------|
C|000-000-02333-333-777777777777777-55555555555555555-|

Outro Pt.2 (Twenty bucks says you'll remember me...)
F|----------------------------|
C|----------------------------|
G|5~~~-7~-8~~~-7~~~-5~~~-3~~~-|
C|----------------------------|
Komentari
Još nema komentara