AFI

Days Of The Phoenix Bass Tab

by:

Pronađi akord!

Ne znaš kako odsvirati neki od akorda pjesmi Days Of The Phoenix Bass Tab? Upiši akord u tražilicu i saznaj!

Traženi akord će se prikazati ovdje

Od istog izvođača

Pregledano 992 puta
Pregledano 966 puta
Pregledano 956 puta
Pregledano 1249 puta
Pregledano 1050 puta
Trebaš ritam za ovu pjesmu? Pronađi ga ovdje
Akordi/Tabovi:
Intro:

|----------------------------------|
|----------------------------------|
|------5----------------5----------|
|--7-------3---5----7-------3---5--|

Verse:

|-----------------------------------------------------------------------------------------|
|-----------------------------------------------------------------------------------------|
|-----------------4-5-5-------5-----7-------------------------4-5-5-------5-----7---------|
|--7-7--/5-5--7-7-------2-3-3---4-4---5-5-5-5--7-7--/5-5--7-7-------2-3-3---4-4---5-5-5-5-|

|---------------------------------------------------------------------------------------------|
|---------------------------------------------------------------------------------------------|
|-----------------4-5-5---------------------------------------4-5-5---------------------------|
|--7-7--/5-5--7-7-------2-3-3-3-4-4-4-5-5-5-5--7-7--/5-5--7-7-------2-3-3-3-4-4-4-5-5-5-2-2-2-|

|-------------------|
|-------------------|
|-------------------|
|--3-3-3-3-5-5-5-5--|


Chorus:

|---------------------------------------------------------------------|
|---------------------------------------------------------------------|
|-----------------10-10-10-10-10-10----------------10-10-10-10-10-10--|
|--7-7-7/10-10-10-------------------7-7-7/10-10-10--------------------|

|---------------------------------------------------------------------|
|---------------------------------------------------------------------|
|-----------------10-10-10-10-10-10----------------10-10-10/12-12-12--|
|--7-7-7/10-10-10-------------------7-7-7/10-10-10--------------------|


post chorus: (same as intro)

|----------------------------------|
|----------------------------------|
|------5----------------5----------|
|--7-------3---5----7-------3---5--|


breakdown:

|---------------------------------|
|---------------------------------|
|---------------------------------|
|--7---5---3---5---7---5---3---5--|

|----------------------------------------------------------------|
|-----9------7------5------7------9------7------5------4---------|
|----------------------------------------------------------------|
|--7----7-5----5-3----3-5----5-7----7-5----5-3----3-2----2-3--5--|
Komentari
Još nema komentara