Chiodos

The Words Best Friend Become Redefined

by:

Pronađi akord!

Ne znaš kako odsvirati neki od akorda pjesmi The Words Best Friend Become Redefined? Upiši akord u tražilicu i saznaj!

Traženi akord će se prikazati ovdje

Od istog izvođača

Pregledano 1145 puta
Pregledano 1079 puta
Pregledano 1143 puta
Pregledano 1035 puta
Pregledano 1040 puta
Trebaš ritam za ovu pjesmu? Pronađi ga ovdje
Akordi/Tabovi:
e|---------------------------------------------------------------------------|
B|---------------------------------------------------------------------------|
G|---------------------------------------------------------------------------|
D|--------7-5-5-3-3-2-2-2-3-2-2----------------------------------------------|
A|-5-5-5--------------------------4h7p4h7p4h7p4------------------------------|
D----------------------------------------------------------------------------|


e|---------------------------------------------------------------------------|
B|---------------------------------------------------------------------------|
G|---------------------------------------------------------------------------|
D|--------7-5-5-3-3-5-5-5-7-8-8-7-7------------------------------------------|
A|-5-5-5---------------------------------------------------------------------|
D|---------------------------------------------------------------------------|

e|---------------------------------------------------------------------------|
B|---------------------------------------------------------------------------|
G|---------------------------------------------------------------------------|
D|--------7-5-5-3-3-2-2-2-3-2-2----------------------------------------------|
A|-5-5-5--------------------------4h7p4h7p4h7p4------------------------------|
D|---------------------------------------------------------------------------|


e|---------------------------------------------------------------------------|
B|---------------------------------------------------------------------------|
G|---------------------------------------------------------------------------|
D|--------7-5-5-3-3-5-5-5-7-8-8-7--------------------------------------------|
A|-5-5-5---------------------------------------------------------------------|
D|---------------------------------------------------------------------------|
Play the intro twice but instead of ending with 7, end with 4h7p4h7p4h7p4

I'm going to include the piano part because it sounds much better then not playing for a
until the chorus.
e|---------5--------------------5--------------------------------------------|
B|------------8-6-5-6--------------8-6-5-6-----------------------------------|
G|-----7---------------------7-----------------------------------------------|
D|---7---------------------7-------------------------------------------------|
A|-5---------------------5---------------------------------------------------|
D|---------------------------------------------------------------------------|

e|---------5-------------------5---------------------------------------------|
B|------------8-6-5-6--------------8-6-5-6-----------------------------------|
G|-----7--------------------7------------------------------------------------|
D|---7--------------------7--------------------------------------------------|
A|-3--------------------3----------------------------------------------------|
D|---------------------------------------------------------------------------|

e|--------5--------------------5---------------------------------------------|
B|------------8-6-5-6--------------8-6-5-6-----------------------------------|
G|---------------------------------------------------------------------------|
D|-----7--------------------7------------------------------------------------|
A|---7--------------------7--------------------------------------------------|
D|8--------------------8-----------------------------------------------------|


e|-------------5-6-5----------------|-------------5-6-8-9-10-12-13-12-10-12--|
B|-------5-6-8-------8-6-5---5-6-5--|-------5-6-8----------------------------|
G|-----7-------------------7--------|-----7----------------------------------|
D|---7------------------------------|---7------------------------------------|
A|-3--------------------------------|-3--------------------------------------|
D|---------------------------------|-----------------------------------------|
Go back to the beginning and second time play ^^^^^^^^^^^^^ instead. You'll know what I
when you play along.

e|---------5--------------------5--------------------------------------------|
B|------------8-6-5-6--------------8-6-5-6-----------------------------------|
G|-----7---------------------7-----------------------------------------------|
D|---7---------------------7-------------------------------------------------|
A|-5---------------------5---------------------------------------------------|
D|---------------------------------------------------------------------------|

e|---------5-------------------5---------------------------------------------|
B|------------8-6-5-6--------------8-6-5-6-----------------------------------|
G|-----7--------------------7------------------------------------------------|
D|---7--------------------7--------------------------------------------------|
A|-3--------------------3----------------------------------------------------|
D|---------------------------------------------------------------------------|

e|--------5--------------------5---------------------------------------------|
B|------------8-6-5-6--------------8-6-5-6-----------------------------------|
G|---------------------------------------------------------------------------|
D|-----7--------------------7------------------------------------------------|
A|---7--------------------7--------------------------------------------------|
D|8--------------------8-----------------------------------------------------|


e|-------------5-6-8-9-10-12-13-12-10-12-------------------------------------|
B|-------5-6-8---------------------------------------------------------------|
G|-----7---------------------------------------------------------------------|
D|---7-----------------------------------------------------------------------|
A|-3-------------------------------------------------------------------------|
D|---------------------------------------------------------------------------|


e|---------5--------------------5--------------------------------------------|
B|------------8-6-5-6--------------8-6-5-6-----------------------------------|
G|-----7---------------------7-----------------------------------------------|
D|---7---------------------7-------------------------------------------------|
A|-5---------------------5---------------------------------------------------|
D|---------------------------------------------------------------------------|

e|---------5-------------------5---------------------------------------------|
B|------------8-6-5-6--------------8-6-5-6-----------------------------------|
G|-----7--------------------7------------------------------------------------|
D|---7--------------------7--------------------------------------------------|
A|-3--------------------3----------------------------------------------------|
D|---------------------------------------------------------------------------|

e|--------5--------------------5---------------------------------------------|
B|------------8-6-5-6--------------8-6-5-6-----------------------------------|
G|---------------------------------------------------------------------------|
D|-----7--------------------7------------------------------------------------|
A|---7--------------------7--------------------------------------------------|
D|8--------------------8-----------------------------------------------------|


e|-------------5-6-8---------------------------------------------------------|
B|-------5-6-8---------------------------------------------------------------|
G|-----7---------------------------------------------------------------------|
D|---7-----------------------------------------------------------------------|
A|-3-------------------------------------------------------------------------|
D|---------------------------------------------------------------------------|

Solo [Chorus thingy]
e|-10---8--10--12--8--8------------------------------------------------------|
B|-----------------------10--8--10--11--13-----------------------------------|
G|---------------------------------------------------------------------------|
D|---------------------------------------------------------------------------|
A|---------------------------------------------------------------------------|
D|---------------------------------------------------------------------------|

e|-trem pick these-10--12--13--12---10--12--13--15--17-----------------------|
B|---------------------------------------------------------------------------|
G|---------------------------------------------------------------------------|
D|---------------------------------------------------------------------------|
A|---------------------------------------------------------------------------|
D|---------------------------------------------------------------------------|

e|-------------------------------------------------------------------------|
B|-------------------------------------------------------------------------|
G|-------------------------------------------------------------------------|
D|-------------------------------------------------------------------------|
A|-0-0---0-0-0-0---0-0---0-0-0-0---0-0--0-0-0-0---0-0--0-0-0-0-------------|
D|0-0---0-0-0-0---0-0---0-0-0-0---0-0--0-0-0-0---0-0--0-0-0-0--------------|

                                                              If your stomach feels weak
my work here is DONE!!!!!!!!

e|---------------------------------------------------------------------------|
B|-----9----------9-------9-----------9-------9-----------9------------------|
G|-----7----------7-------7-----------7-------7-----------7------------------|
D|-----6----------6-------6-----------6-------6-----------6------------------|
A|---------------------------------------------------------------------------|
D|0-0-----0-0-0-0-----0-0-----0-0-0-0-----0-0-----0-0-0-0---Play2More--------|
                                                             It's supposed to be played
times but I ran out of room...then play below

e|---------------------------------------------------------------------------|
B|----9---------------------9------------------------------------------------|
G|----7-----------7-N.C.----7------------------------------------------------|
D|----8-----------7-N.C.----8------------------------------------------------|
A|-0-0-----0-0-0-0-------0-0---0-0-------------------------------------------|
D-0-0-----0-0-0-0-------0-0---0-0--------------------------------------------|


e|-------------------------------------------------------------------------|
B|-------------------------------------------------------------------------|
G|-------------------------------------------------------------------------|
D|-------------------------------------------------------------------------|
A|-0-0--0-0-0-0--0-0--0-0-0-0--0-0--0-0-0-0--0-0--0-0-0-0--0-0--0-0-0-0----|
D|0-0--0-0-0-0--0-0--0-0-0-0--0-0--0-0-0-0--0-0--0-0-0-0--0-0--0-0-0-0-----|


e|-------------------------------------------------------------------------|
B|-------------------------------------------------------------------------|
G|-------------------------------------------------------------------------|
D|-------------------------------------------------------------------------|
A|-0-0--0-0-0-0--0-0--0-0-0-0--0-0--0-0-0-0--------------------------------|
D|0-0--0-0-0-0--0-0--0-0-0-0--0-0--0-0-0-0---------------------------------|

---------------------------------------------------------------------------

GUITAR TWO

gtr2 kicks in with this..you'll know when of course cause it's easy to hear.
e|-------------------------------------------------------------------------|
B|-------------------------------------------------------------------------|
G|-7-7-7-7-7-7-7-7-7-7-7-7--10-10-10-10-10-10-10-10-9----------------------|
D|-x-x-x-x-x-x-x-x-x-x-x-x---x--x--x--x--x--x--x--x-x----------------------|
A|-5-5-5-5-5-5-5-5-5-5-5-5---8--8--8--8--8--8--8--8-7----------------------|
D|-------------------------------------------------------------------------|

e|-------------------------------------------------------------------------|
B|-------------------------------------------------------------------------|
G|-6-6-6-6-6-6-6-6-6-6-6-6--10-10-10-10-10-10-10-10--9-9-9-9-9-9-9-9-------|
D|-x-x-x-x-x-x-x-x-x-x-x-x---x--x--x--x--x--x--x--x--x-x-x-x-x-x-x-x-------|
A|-4-4-4-4-4-4-4-4-4-4-4-4---8--8--8--8--8--8--8--8--7-7-7-7-7-7-7-7-------|
D|-------------------------------------------------------------------------|

e|-------------------------------------------------------------------------|
B|-------------------------------------------------------------------------|
G|-7-7-7-7-7-7-7-7-7-7-7-7--10-10-10-10-10-10-10-10-9----------------------|
D|-x-x-x-x-x-x-x-x-x-x-x-x---x--x--x--x--x--x--x--x-x----------------------|
A|-5-5-5-5-5-5-5-5-5-5-5-5---8--8--8--8--8--8--8--8-7----------------------|
D|-------------------------------------------------------------------------|


e|-------------------------------------------------------------------------|
B|-------------------------------------------------------------------------|
G|-6-6-6-6-6-6-6-6-6-6-6-6--10-10-10-10-10-10-10-10--9-9-9-9-9-9-9-9-------|
D|-x-x-x-x-x-x-x-x-x-x-x-x---x--x--x--x--x--x--x--x--x-x-x-x-x-x-x-x--0~---|
A|-4-4-4-4-4-4-4-4-4-4-4-4---8--8--8--8--8--8--8--8--7-7-7-7-7-7-7-7--0~---|
D|-------------------------------------------------------------------0~----|


Chrous part-thingy [Play 4 times].
e|-------------------------------------------------------------------------|
B|-------------------------------------------------------------------------|
G|-------------------------------------------------------------------------|
D|-0~-0~--3~--7~-----------------------------------------------------------|
A|-0~-0~--3~--7~-----------------------------------------------------------|
D|0~-0~--3~--7~------------------------------------------------------------|


This is where the piano comes in and it's played pretty fast, try to play this song with
else to get the fills and everything.
e|----------------------------------10--10--10--10--10--10--10--10---------|
B|-9---9---9---9---9---9---9---9------9---9---9---9---9---9---9---9--------|
G|---7---7---7---7---7---7---7---7-----------------------------------------|
D|-------------------------------------------------------------------------|
A|-------------------------------------------------------------------------|
D|-------------------------------------------------------------------------|
Play that twice. On the 2nd time after you play the 10's and 9's, play this until the
of the song.

e|-16---------|
B|---15-------|
G|------------|
D|------------|
A|------------|
D|------------|


| /  slide up
|   slide down
| h  hammer-on
| p  pull-off
| ~  vibrato
| +  harmonic
| x  Mute note
Komentari
Još nema komentara