Chiodos

Teeth The Size Of Piano Keys

by:

Pronađi akord!

Ne znaš kako odsvirati neki od akorda pjesmi Teeth The Size Of Piano Keys? Upiši akord u tražilicu i saznaj!

Traženi akord će se prikazati ovdje

Od istog izvođača

Pregledano 1040 puta
Pregledano 988 puta
Pregledano 1035 puta
Pregledano 1057 puta
Pregledano 1079 puta
Trebaš ritam za ovu pjesmu? Pronađi ga ovdje
Akordi/Tabovi:
(intro)
|---5p0--5----5p0--5---5p0--5-----5p0--5---5p0--5--------------|
|------h6--------h6-------h6---------h6-------h6----666666-----|
|---------------------------------------------------999999-----|
|-0---------0--------0--------3-0--------0---------------------|
|-0---------0--------0--------3-0--------0---------------------|
|-0---------0--------0--------3-0--------0---------------------|

"i dropped all of my lovers"
|---5p0--5----5p0--5-----------5p0--5---5p0--5------------|
|------h6--------h6---66----------h6-------h6--666666-----|
|---------------------99-----------------------999999-----|
|-0---------0--------------3-0--------0-------------------|
|-0---------0--------------3-0--------0-------------------|
|-0---------0--------------3-0--------0-------------------|

"and i stood up and screamed"
|------------------------------|
|-4-44-4-44-4-44-----4^~-------|
|-7-77-7-77-7-77-----7^~-------|
|-x-xx-x-xx-x-xx---------------|
|-5-55-5-55-5-55---------------|
|-0-00-0-00-0-00---------------|

"im in love"
|---5p0--5----5p0--5---5p0--5-----5p0--5---5p0--5--------------|
|------h6--------h6-------h6---------h6-------h6----666666-----|
|---------------------------------------------------999999-----|
|-0---------0--------0--------3-0--------0---------------------|
|-0---------0--------0--------3-0--------0---------------------|
|-0---------0--------0--------3-0--------0---------------------|


(chorus)"you gave it to me through the eyes..."
|-------------------------------------------------------------|
|-------------------------------------------------------------|
|--777--7-777-777-7/9/10-9--------1212121212--------999999----|
|--xxx--x-xxx-xxx-x-x-x--x-888-8-/-x-x-x-x-x--777-7-xxxxxx----|
|--555--5-555-555-5/7/8 -7-888-8-/1010101010--777-7-777777----|
|--------------------------888-8--------------777-7-----------|

|-------------------------------------------------------------------------|
|-------------------------------------------------------------------------|
|--777--7-----777-7/10-9\7------------------------------------------------|
|--xxx--x-00--xxx-x-x--x-x-00---------00----------00---------00-----------|
|--555--5-00--555-5/8--7\5-00-5h8p5p0-00-5h8p5p0--00-4h7p4p0-00-4h7p4p0---|
|---------00---------------00---------00----------00---------00-----------|

|-------------------------------7-9/11\9-7-----------8-10/12\10-8---------|
|------------------------------5----------10--------5------------10-------|
|-777-7-77-----777-7/10-9\7---5-------------9------5---------------9------|
|-xxx-x-xx-000-xxx-x-x--x-x--7---------------10---7-----------------10----|
|-555-5-55-000-555-5/8--7\5--------------------12~--------------------12--|
|----------000------------------------------------------------------------|

|-------------------------------------------------------------------------|
|-------------------------------------------------------------------------|
|--777--7-----777-7/10-9\7------------------------------------------------|
|--xxx--x-00--xxx-x-x--x-x-00---------00----------00---------00-----------|
|--555--5-00--555-5/8--7\5-00-5h8p5p0-00-5h8p5p0--00-4h7p4p0-00-4h7p4p0---|
|---------00---------------00---------00----------00---------00-----------|

                           
(verse1)"there was no living creature as foul as i...""
|---------------------------------------------------------------------|(pick
|-22-20-18-17------20-18-17--------18-17------------------17-18-20----|each
|------------19-17---------19-17-15-----19-17-15--15-17-19------------|note
|-----------------------------------------------19--------------------| 3X)
|---------------------------------------------------------------------|
|---------------------------------------------------------------------|(x2)

|-----------------18-----20-18--22-20-18-20-18--18-------------------------|
|-22-20-18-17-------22-20-----22--------------22--22-20-22-20-18-22-20-1820|
|------------19-17---------------------------------------------------------|
|--------------------------------------------------------------------------|
|--------------------------------------------------------------------------|
|--------------------------------------------------------------------------|

|----------------------------------------------------------|
|-18-17-18-17-18-20-22-20-22-20-18-17-----20-18-17---------|
|------------------------------------19-17--------19-17-15-|
|----------------------------------------------------------|
|----------------------------------------------------------|
|----------------------------------------------------------|


(pre-chorus)"ilumination held out..."
|---------20-22-20-18----------------------------------------------|(tremelo
|-18-20-22------------22~--20~--18~--17~--20~--18-17-18~--17~------|pick the
|--------------------------------------------------------------17~-|first
|------------------------------------------------------------------|few
|------------------------------------------------------------------|notes)
|------------------------------------------------------------------|


(chorus)"you gave it to me through the eyes..."
|-------------------------------------------------------------|
|-------------------------------------------------------------|
|--777--7-777-777-7/9/10-9--------1212121212--------999999----|
|--xxx--x-xxx-xxx-x-x-x--x-888-8-/-x-x-x-x-x--777-7-xxxxxx----|
|--555--5-555-555-5/7/8 -7-888-8-/1010101010--777-7-777777----|
|--------------------------888-8--------------777-7-----------|

|-------------------------------------------------------------------------|
|-------------------------------------------------------------------------|
|--777--7-----777-7/10-9\7------------------------------------------------|
|--xxx--x-00--xxx-x-x--x-x-00---------00----------00---------00-----------|
|--555--5-00--555-5/8--7\5-00-5h8p5p0-00-5h8p5p0--00-4h7p4p0-00-4h7p4p0---|
|---------00---------------00---------00----------00---------00-----------|

|-------------------------------7-9/11\9-7-----------8-10/12\10-8---------|
|------------------------------5----------10--------5------------10-------|
|-777-7-77-----777-7/10-9\7---5-------------9------5---------------9------|
|-xxx-x-xx-000-xxx-x-x--x-x--7---------------10---7-----------------10----|
|-555-5-55-000-555-5/8--7\5--------------------12~--------------------12--|
|----------000------------------------------------------------------------|

|-------------------------------------------------------------------------|
|-------------------------------------------------------------------------|
|--777--7-----777-7/10-9\7------------------------------------------------|
|--xxx--x-00--xxx-x-x--x-x-00---------00----------00---------00-----------|
|--555--5-00--555-5/8--7\5-00-5h8p5p0-00-5h8p5p0--00-4h7p4p0-00-4h7p4p0---|
|---------00---------------00---------00----------00---------00-----------|


(breakdown)"there was no living creature foul as i..."
|-------------------------------------------------------------|
|-------------------------------------------------------------|
|----14-14-14-14----12-12-12-12----15-15-15-15----14-14-14-14-|
|-00--x--x--x--x-00--x--x--x--x-00--x--x--x--x-00--x--x--x--x-|
|-00-12-12-12-12-00-10-10-10-10-00-13-13-13-13-00-12-12-12-12-|
|-00-------------00-------------00-------------00-------------|

|--------------------------------------------------------|
|--------------------------------------------------------|
|----14-14-14-14----9-9-9-9----12-12-12-12---11-11-11-11-|
|-00--x--x--x--x-00-x-x-x-x-00--x--x--x--x-00-x--x--x--x-|
|-00-12-12-12-12-00-7-7-7-7-00-10-10-10-10-00-8--8--8--8-|
|-00-------------00---------00-------------00------------|


(breakdown pt.2)"i could feel my soul dropping down"
|------------------------------------------------------------------|
|---444444444444-----444--444-------444444444444-----444--444------|
|---777777777777-----777--777-------777777777777-----777--777------|
|-0--------------0-0-----0----000-0--------------0-0-----0----000--|
|-0--------------0-0-----0----000-0--------------0-0-----0----000--|
|-0--------------0-0-----0----000-0--------------0-0-----0----000--| (x2)


(outro)
|---5p0--5----5p0--5---5p0--5-----5p0--5---5p0--5---5p0--5---------------|
|------h6--------h6-------h6---------h6-------h6-------h6----------------|
|------------------------------------------------------------------------|
|-0---------0--------0--------3-0--------0--------0----------333---------|
|-0---------0--------0--------3-0--------0--------0----------333---------|
|-0---------0--------0--------3-0--------0--------0----------333---------|


|---5p0--5----5p0--5---5p0--5------5p0--5---5p0--5---5p0--5---------------|
|------h6--------h6-------h6----------h6-------h6-------h6----------------|
|-------------------------------------------------------------------------|
|-0---------0--------0---------3-0--------0--------0----------333--0------|
|-0---------0--------0---------3-0--------0--------0----------333--0------|
|-0---------0--------0---------3-0--------0--------0----------333--0------|
Komentari
Još nema komentara