Chiodos

Beautiful Blue Eyes

by:

Pronađi akord!

Ne znaš kako odsvirati neki od akorda pjesmi Beautiful Blue Eyes? Upiši akord u tražilicu i saznaj!

Traženi akord će se prikazati ovdje

Od istog izvođača

Pregledano 1040 puta
Pregledano 1145 puta
Pregledano 1051 puta
Pregledano 970 puta
Pregledano 986 puta
Trebaš ritam za ovu pjesmu? Pronađi ga ovdje
Akordi/Tabovi:
Standard Tuning


Intro
--------------------------------------------------------------------|
--------------------------------------------------------------------|
-66/777777-111111111111-99999-66/777777-44444-22222-----------------|
-000000000--0-0-0-0-0-0-00000-000000000-00000-00000-----------------|
--------------------------------------------------------------------|
--------------------------------------------------------------------| x2

Verse
--------------------------------------------------------------------|
--------------------------------------------------------------------|
-77xx---------------------------------------------------------------|
-77xx99xx44xx5x5x5--------------------------------------------------|
-55xx99xx44xx5x5x5--------------------------------------------------|
-----77xx22xx3x3x3--------------------------------------------------| x4

Chorus
--------------------------------------------------------------------|
--------------------------------------------------------------------|
--------7-4444-22222--------2-222222222-----------------------------|
-555555-5-2222-22222-555555-0-222222222-----------------------------|
-555555-5-2222-00000-555555-0-000000000-----------------------------|
-333333--------------333333-----------------------------------------| x2

Outro - End on:
-------|
-------|
---7---|
---7---|
---5---|
-------|

Order:
Intro
Verse
Chorus
Intro
Verse
Chorus
Intro
Chours
Outro
Komentari
Još nema komentara