Chiodos

A Letter From Janelle

by:

Pronađi akord!

Ne znaš kako odsvirati neki od akorda pjesmi A Letter From Janelle? Upiši akord u tražilicu i saznaj!

Traženi akord će se prikazati ovdje

Od istog izvođača

Trebaš ritam za ovu pjesmu? Pronađi ga ovdje
Akordi/Tabovi:
This part is not  guitar, it's keys... Just included... hehehe...
Intro:
|--------------------------------|
|--------------------------------|
|-14~-12~-10-9-10-12-10-9-10-12--|
|--------------------------------|
|--------------------------------|
|--------------------------------|

Guitar 1:
Shine!...
|----------------------------------|    |----------------------------|
|----------------------------------|    |----------------------------|
|----------------------------------|    |----------------------------|
|-11-0-9-0-9-0-11-0-9-0-9-11-x-x-x-| x2 |-11-0-9-0-9-0-11-0-9-0-9-0--| x2
|----------------------------------|    |----------------------------|
|----------------------------------|    |----------------------------|

Guitar 2:
Shine!..    move with me, move with me...    with me...
|-------|  |-----------------------------|  |----------|
|--10~--|  |-----------------------------|  |----10~---|
|--10~--|  |----7~----7~----7~----7~-----|  |----10~---|
|--8~---|  |----7~----7~----7~----7~-----|  |----8~----|
|-------|  |----5~----5~----5~----5~-----|  |----------|
|-------|  |-----------------------------|  |----------|
            (I think this part is wrong...)
Chorus:(whole chorus is pLayed tremolo picking...)
Dont you think I can tell....
|-1010101010101010-1212121212121212-1313131313131313-1515151515151515---|
|-----------------------------------------------------------------------|
|-----------------------------------------------------------------------|
|-----------------------------------------------------------------------|
|-----------------------------------------------------------------------|
|-----------------------------------------------------------------------|

continued...
|-1717171717171717-1515151515151515-1717171717171717-1313131313131313--|
|----------------------------------------------------------------------|
|----------------------------------------------------------------------|
|----------------------------------------------------------------------|
|----------------------------------------------------------------------|
|----------------------------------------------------------------------|
Chorus is played twice...

then:
to remember who you really are...
|---11----------12---13-----------|
|-------10--13-----------11--13---|
|---------------------------------|
|---------------------------------|
|---------------------------------|
|---------------------------------|

verse:
  Its easy to get lost...
|---------------------------------------------------------------------|
|---------------------------------------------------------------------|
|---5p0h3p0h2p0h3p0h2p0h2p0h3p0h2p0-5p0h3p0h2p0h3p0h2p0h2p0h3p0h2p0---|
|---------------------------------------------------------------------|
|---------------------------------------------------------------------|
|---------------------------------------------------------------------|

|---------------------------------------------------------------------|
|---------------------------------------------------------------------|
|---5p0h3p0h2p0h3p0h2p0h2p0h3p0h2p0-5p0h3p0h2p0h3p0h2p0h2p0h3p0h2p0---|
|---------------------------------------------------------------------|
|---------------------------------------------------------------------|
|---------------------------------------------------------------------|

|---------------------------------------------------------------------|
|---------------------------------------------------------------------|
|---5p0h3p0h2p0h3p0h2p0h2p0h3p0h2p0-5p0h3p0h2p0h3p0h2p0h2p0h3p0h2p0---|
|---------------------------------------------------------------------|
|---------------------------------------------------------------------|
|---------------------------------------------------------------------|

|---------------------------------------------------------------------|
|---------------------------------------------------------------------|
|---5p0h3p0h2p0h3p0h2p0h2p0h3p0h2p0-5p0h3p0h2p0h3p0h2p0h2p0h3p0h2p0---|
|---------------------------------------------------------------------|
|---------------------------------------------------------------------|
|---------------------------------------------------------------------|

Pre-chorus:(i swear I hear the other guitar doin somethin here but i cant hear it, so
just update it nxt tym..)
Yet we hesitate...
|-----------------------------------------------------------------------|
|-----------------------------------------------------------------------|
|------------------------------------1010101010101010-1212121212121212--|
|-1212121212121212121212121212121212------------------------------------|
|-----------------------------------------------------------------------|
|-----------------------------------------------------------------------|

continued...
|------------------------------------------------------|
|------------------------------------------------------|
|-14141414141414141414141414141414---------------------|
|----------------------------------77777777-55555555---|
|------------------------------------------------------|
|------------------------------------------------------|
repeat pre-chorus...

Chorus:(tremolo picking)
Dont you think I can tell....
|-1010101010101010-1212121212121212-1313131313131313-1515151515151515---|
|-----------------------------------------------------------------------|
|-----------------------------------------------------------------------|
|-----------------------------------------------------------------------|
|-----------------------------------------------------------------------|
|-----------------------------------------------------------------------|

continued...
|-1717171717171717-1515151515151515-1717171717171717-1313131313131313--|
|----------------------------------------------------------------------|
|----------------------------------------------------------------------|
|----------------------------------------------------------------------|
|----------------------------------------------------------------------|
|----------------------------------------------------------------------|
repeat chorus...

then:
|---11----------12---13-----------|
|-------10--13-----------11--13---|
|---------------------------------|
|---------------------------------|
|---------------------------------|
|---------------------------------|
Komentari
Još nema komentara