Divlje Jagode

Krivo je more

by: Divlje Jagode

Pronađi akord!

Ne znaš kako odsvirati neki od akorda pjesmi Krivo je more? Upiši akord u tražilicu i saznaj!

Traženi akord će se prikazati ovdje

Od istog izvođača

Pregledano 7991 puta
Pregledano 4857 puta
Pregledano 8027 puta
Pregledano 12046 puta
Pregledano 19341 puta
Trebaš ritam za ovu pjesmu? Pronađi ga ovdje
Akordi/Tabovi:
Divlje Jagode, Krivo je more

G
G             Am       C           G
Ti, ti si ga upoznala jedne ljetne veceri
G           Am        C         G
On, on te poljubio dok more se pjenilo
Em          D         Em        D
I ti si se zaljubila ma da nisi htjela to
C        G
Krivo je more

             "I ti si...         ma da nisi ...              krivo je more"
             ("A to vece uz ...    od srece sva...           krivo je more")
e --------------------------------------------------------------------------
H --------------------------------------------------------------------------
G --------------------------------------------------------------------------
D -------------------4h5p4--------------------4h5p4-------------------------
A --2--5--7-------5----------5-7----------5----------5-3-----------------10-
E --------------------------------------------------------------------------

G             Am          C       G
Znaj ljeto je varljivo, a srce ti zavodljivo
G             Am          C            G
Kuci kad si dosla ti, znala si da si u zabludi
Em          D           Em             D
A to vece uz mora sum, Od srece sva si blistala
C        G
Krivo je more

solo:
e --------------------------------------------------------------------------
H ------------------------------------------10-13--13-12-10---12r10---------
G -----------b15-b14--12h14p12-12-11-12--12-----------------12--------------
D --------------------------------------------------------------------------
A --------------------------------------------------------------------------
E --------------------------------------------------------------------------

e --------------------------------------------------------------------------
H --------------------10-12-13-12-8b10-7b8-7--------------------------------
G --------------------------------------------b9b9b9b9----b7---5-4----------
D ------------------------------------------------------------------7-------
A --------------------------------------------------------------------------
E --------------------------------------------------------------------------

G             Am          C       G
Znaj ljeto je varljivo, a srce ti zavodljivo
G             Am          C            G
Kuci kad si dosla ti, znala si da si u zabludi
Em          D           Em             D
A to vece uz mora sum, Od srece sva si blistala
C        G
Krivo je more

solo:
Komentari

Hutch kaže:

ljudi sta znaci "b15 b14"

19-01-2010 17:41

Elvis Presley kaže:

jeli solo 100 posto dobar?

19-01-2010 17:44

rock forever kaže:

b15 b14 ti znači da bendaš žicu na 15 i 14 polju. A solo nije moj nego sam ga našo na nekoj stranici i posto ovdje.

05-02-2010 19:02

jakuzaa kaže:

SOLO NIJE DOBAR...OVAKO TREBA DA IDE DRUGARI ;) :)


e --9--7--5-4-5--7--9-10--10-9------9--7----------
H ----------------------------10------------------
G -------------------------------9----------------

e--9-10-9---2--5--3---2--0-0-0-0------------------
H---------------------------------3--1--0---------
G------------------------------------------2------

14-03-2010 00:37

jakuzaa kaže:

SOLO NIJE DOBAR...OVAKO TREBA DA IDE DRUGARI ;)




e --9--7--5-4-5--7--9-10--10-9------9--7----------
H ----------------------------10------------------
G -------------------------------9----------------

e--9-10-9---2--5--3---2--0-0-0-0------------------
H---------------------------------3--1--0---------
G------------------------------------------2------

14-03-2010 00:37

jakuzaa kaže:

SOLO NIJE DOBAR...OVAKO TREBA DA IDE DRUGARI ;) :)





e --9--7--5-4-5--7--9-10--10-9------9--7----------
H -----------------------------10-----------------
G --------------------------------9---------------

e--9-10-9---2--5--3---2--0-0-0-0------------------
H---------------------------------3--1--0---------
G------------------------------------------2------

14-03-2010 00:39

jakuzaa kaže:

e izbrisi ova zadnja 3 komentara...uopste brojke neec lepo da se prikazu kako sam ih namestio...inace ovako ide solo kako sam napisao...samo brojke ne idu kad treba jer se ovde nesto izbagovalo..ali ko zna melodiju pesme snacice se ;)

14-03-2010 00:40

LordWereWolf kaže:

Samo kopirajte tabove u notepad i bice pravilno prikazani.

30-08-2010 23:27

krox kaže:

nevalja to ni jedan ni drugi solo

18-11-2010 20:32

kio kaže:

E|-------------------------------7-8----8-7----7----
B|--10b12--10b12r10--8p7h8----10-----------8----10--
G|------------------------------------------7-------
D|--------------------------------------------------
A|--------------------------------------------------
E|--------------------------------------------------

E|--7h8p7-------------------------------------------
B|---------7-7---10p7-8---7-------------------------
G|----------------------------9----7-7---5-4-2--(0)-
D|--------------------------------------------------
A|--------------------------------------------------
E|--------------------------------------------------


Mislim da je ovaj solo..dobar...svirao sam vise puta =)

18-11-2010 20:43

krox kaže:

ovo je puno tocnije

e-----------------------------------------------------------------------------
h-10b12-12r10-8-7-8~--/10-12-13--13--12----------10b12-10~--12-13-12--7-10-8--
g---------------------------------------12------------------------------------
d------------------------------------------12----------------------------------

e--------------------------------------------------------------------
h--7--------------------------------------------------------------------
g--7--9-9-9-9-/7-5-4-2-----------------------------------------
d-----------------------------------------------------------------------

to se odsvira dva puta i to je prvi solo, ai drugi je isti skoro samo je kraj
malo drukciji

18-11-2010 21:12

krox kaže:

kopirajte u note pad tablaturu pa ce fino pokazat
kio ovo sam ja sada skido na djitri, to je to da. nevjerojatno da smo u isto vrijeme radili ovo

18-11-2010 21:18

krox kaže:

jedino ti kraj treba dopunit malo i pati me ovaj dio

e---7----------------------
h----8---------------------
g-----7--------------------

nesjeda mi ovaj d

18-11-2010 21:21

kio kaže:

@ krox... ma nije poredao dobro...mislim kopirao sam sa notepada...ali opet se izmjesali...

Jos jedan pokusaj xD


E|-------------------------------7-8----8-7----7----
B|--10b12--10b12r10--8p7h8----10-----------8----10--
G|------------------------------------------7-------
D|--------------------------------------------------
A|--------------------------------------------------
E|--------------------------------------------------

E|--7h8p7-------------------------------------------
B|---------7-7---10p7-8---7-------------------------
G|----------------------------9----7-7---5-4-2--(0)-
D|--------------------------------------------------
A|--------------------------------------------------
E|--------------------------------------------------

18-11-2010 22:29

kio kaže:

kada napisem...sve je u redu...kada predam rad...pomjesa se sve...

18-11-2010 22:30

krox kaže:

nek si kopiraju u notepadi gotovo...to mi stalno desava pišem pa se sve pomiješa ,glavno da solo valja. jedino mi onaj d tamo sumnjiv, to bi trebo bit Gdur apregio ali taj mi d jednostavno loše zvuči...al hebes jedan ton, ako neko hoce može staviti i solo iz novije verzije...obadva su sjajna

19-11-2010 03:50

tonigitara kaže:

dali mi moze ko reč kako ide ritam od ove pjesme, kako udaram???

05-12-2010 14:02

Zeleni_Zub kaže:

D D G D !!!

05-12-2010 15:03

Shisha_ kaže:

DDDGGGDGDGDG ,ovako ritam ide.

18-05-2011 15:08

Mace Justin kaže:

ritam ide DDGD bar po mom sluhu xPP a i video sam na spotu kako ga svira :P

29-05-2011 22:17

Isko_98 kaže:

ovdje gdje je ovaj prelaz probajte H7 dobro zvuci .

I ti si se zaljubila ma da nisi htjela to Krivo je more

06-07-2011 20:18

guitarlover14 kaže:

imam problema sa ritmom moze neko mi poslati pravi ritam

14-12-2011 19:54

Arnold Layne kaže:

kakav ritam jel DGDGDG kakav je to ritam to je samo smjer trzanja sviraj doce to samo.

14-12-2011 22:46

eagle kaže:

e --/7---------------7-7/8--8-7---7-----7h8p7---------------------------------
H -----10--8/7-8--10-----------8----10--------7---10-8--7---------------------
G ------------------------------7-------------------------9-9-9-9-7-----------
D ------------------------------------------------------------------10-9-7----


Mislim, da je ovaj solo najtačniji. Možda, koja mala ispravka još treba.

31-01-2012 17:28

XSARA kaže:

@eagle, evo da ti ti to ponovo copy/paste postavim(ne ulazim je li taj tvoj tab dobar ili ne),dajte si u FAQ malo pogledajte kako se postavljaju tabovi(select pa onda označi akordi/tabovi...) da vam ne ispada ovako nakrivo-zbrčkano sve
Akordi/Tabovi:
e --/7---------------7-7/8--8-7---7-----7h8p7---------------------------------
H -----10--8/7-8--10-----------8----10--------7---10-8--7---------------------
G ------------------------------7-------------------------9-9-9-9-7-----------
D ------------------------------------------------------------------10-9-7----

31-01-2012 19:12