Parni Valjak

Moja Je Pjesma Lagana /Verzija 2/

by: _zera_

Pronađi akord!

Ne znaš kako odsvirati neki od akorda pjesmi Moja Je Pjesma Lagana /Verzija 2/? Upiši akord u tražilicu i saznaj!

Traženi akord će se prikazati ovdje

Od istog izvođača

Pregledano 1301 puta
Pregledano 64293 puta
Pregledano 13164 puta
Pregledano 358 puta
Pregledano 11724 puta
Trebaš ritam za ovu pjesmu? Pronađi ga ovdje
Akordi/Tabovi:
Uvod:
|-------2-----|--------2-2-------|
|---2-----2-4-|----2-------4-2-4-|
|-4---4-------|--4---4-----------|
|-------------|------------------|
|-------------|------------------|
|-------------|------------------|
F#m           Hm
Tuzna je nasa ulica
C#          F#m
Otkada nisi tu,
F#m              Hm
Jer tuznu pjesmu pjevaju
C#          F#m
Oni sto ostaju.

E              A
Iste smo snove sanjali,
C#           F#m
Istom se nadali,
E             A
Drugi su igru vodili
C#          F#m
I snove ukrali.

Nije mi zao sto si otisla,
Znam da si morala.
Jedino boli, malena,
Sto se nisi javila.
Ne bih ti rekao "Ostani",
Ne bih ni probao,
Ne bih ti rekao "Volim te",
Samo - "Cuvaj se".

               Hm      F#m
Moja je pjesma lagana, polagana
  E       A
I tiho se ispija,
       Hm
Sasvim lagana
      F#m
I bez pitanja,
F#m - Fdim - F#m
Sto si otisla.


  F#m          Fdim        F#m
|-----------5-----------4----|
|--------7-----------3-------|
|-----6-----------4----------|
|--4-----------3-----------4-|
|--------------------------4-|
|--------------------------2-|


Kad krenes, srusi mostove,
Izbrisi tragove,
Meni pjesma ostaje
Da me smiruje.

Iste smo snove sanjali,
Istom se nadali,
Ja nisam smogao hrabrosti -
Da se odlucim.

Moja je pjesma lagana, polagana...

Pratnja i za prvi i za drugi solo je: F#m-Hm-E-A-F#m-Hm-C#-F#m

Solo 1
|----------------------------------------------------------9--12-10-9-------------|
|----------------5pbrbr--------2-3-2----------------------9-----------12-10p9-----|
|-2-4/6--4h6h7----------4--2-4-------4-2--1h2p1----4br--10---------------------11-|
|------------------------------------------------4--------------------------------|
|---------------------------------------------------------------------------------|
|---------------------------------------------------------------------------------|

Solo 2
|------4-5-------5-2-4------------------------------------------------------------|
|----7----------------------------------------------------------------------------|
|-/6--------6-7---------7------6-7-6----------------------------/6--4-------------|
|--------------------------7h9-------9-7-6s--/11----9h11-12-----------7-6-4-------|
|------------------------------------------------9----------11--------------------|
|---------------------------------------------------------------------------------|
Komentari

_zera_ kaže:

sorry, mallo sam zafrko u stranama



Uvod:

|-------------|------------------|
|-------------|------------------|
|-------2-----|--------2-2-------|
|---2-----2-4-|----2-------4-2-4-|
|-4---4-------|--4---4-----------|
|-------------|------------------|

09-07-2009 14:34

Srecko411 kaže:

Svaka cast!

22-12-2009 19:03