Atreyu

My Fork In The Road Your Knife In My Back (intro)

by: anakonda

Pronađi akord!

Ne znaš kako odsvirati neki od akorda pjesmi My Fork In The Road Your Knife In My Back (intro)? Upiši akord u tražilicu i saznaj!

Traženi akord će se prikazati ovdje

Od istog izvođača

Pregledano 944 puta
Pregledano 919 puta
Pregledano 883 puta
Pregledano 1268 puta
Pregledano 927 puta
Trebaš ritam za ovu pjesmu? Pronađi ga ovdje
Akordi/Tabovi:
Drop C

Palm muted notes are in parentheses.
|---------------------------------------------------------------------------|
|----------------------------------------------------------------------12br-|
|------9br------------12br---------9-------10p9-----12------10--------------|
|---10-----10-(10)-10------10-(10)---(10)------(10)----(10)----(10)-(10)----|
|-8-------------------------------------------------------------------------|
|---------------------------------------------------------------------------|

|-----------------------------------------------------------------------|
|-----------------------------------------------------------------------|
|------9br--------------------------------------------------------------|
|---10-----10-(10)-10-9br-7-(9)-9-(9)-10p9-(9)-12-(9)-10-(9)-(9)-9h10p9-|
|-8-------------------------------------------------------------------10|
|-----------------------------------------------------------------------|

Last time:
|-------------------------------------------------------------------------------|
|-------------------------------------------------------------------------------|
|------9br----------------------------------------------------------------------|
|---10-----10-(10)-10-9br-7-(9)-9-(999)-10-(9999999)-12-(999)-10-(99999)-9h10p9-|
|-8---------------------------------------------------------------------------10|
|-------------------------------------------------------------------------------|
Komentari
Još nema komentara