Atreyu

Becoming The Bull

by: anakonda

Pronađi akord!

Ne znaš kako odsvirati neki od akorda pjesmi Becoming The Bull? Upiši akord u tražilicu i saznaj!

Traženi akord će se prikazati ovdje

Od istog izvođača

Pregledano 928 puta
Pregledano 904 puta
Pregledano 919 puta
Pregledano 927 puta
Pregledano 963 puta
Trebaš ritam za ovu pjesmu? Pronađi ga ovdje
Akordi/Tabovi:
INTRO
Gtr 1
D|------|--------------------------------|
A|------|--------------------------------|
F|------|--------------------------------|     X3
C|------|---------------7-6--------------|
G|------|------8p5-5h8------8--10p8------|
C|--15\-|--0-0---------------------------|
           = =


D|-----------------------------|   
A|-----------------------------|
F|-----------------------------|     
C|---------------7-000003------|
G|------8p5-5h8----000003------|
C|--0-0------------000003------|
    = =            =====

(come on!!)
Gtr 1+2
D|--------------------------------|
A|--------------------------------|
F|--------------------------------|   X3
C|--------------7-6---------------|
G|------8p5-5h8-----8--10p8-------|
C|--0-0---------------------10p8--|
    = =
                      A.H.
D|-----------------------------|   
A|-----------------------------|
F|-----------------------------|     
C|---------------7-000003~~----|
G|------8p5-5h8----00000-------|
C|--0-0------------00000-------|
    = =            =====

VERSE 1
Gtr 1
D|--------------------------------|
A|--------------------------------|
F|--------------------------------|   X3
C|--------------7-6---------------|
G|------8p5-5h8-----8--10p8-------|
C|--0-0---------------------10p8--|
    = =

D|-----------------------------|   
A|-----------------------------|
F|-----------------------------|     
C|---------------7-000003------|
G|------8p5-5h8----000003------|
C|--0-0------------000003------|
    = =            =====


D|--------------------------------|
A|--------------------------------|
F|--------------------------------|   X4
C|--------------7-6---------------|
G|------8p5-5h8-----8--10p8-------|
C|--0-0---------------------10p8--|
    = =
PRE CHORUS
Gtr 1+2
D|----------------------------------|
A|----------------------------------|
F|----------------------------------|
C|-----------------------------0000-|
G|-----------------------------0000-|
C|-8p5p0--8p5p0--8p5p0--8p5p0--0000-|
                               ====
CHORUS
Gtr 1
D|---------------------------------------------|
A|---------------------------------------------|
F|---------------------------------------------|
C|-88888888-00000000-1010101010101010-55555555-|
G|-88888888-00000000-1010101010101010-55555555-|
C|-88888888-00000000-1010101010101010-55555555-|
|Gtr2                                         |   
D|---------------------------------------------|
A|----------11-10~~~~~~~~~---------------------|               
F|-------10------------------------------------|
C|-10h12---------------------------------------|
G|---------------------------------------------|
C|---------------------------------------------|
Gtr 1
D|---------------------------------------------|
A|---------------------------------------------|
F|---------------------------------------------|
C|-88888888-00000000-1010101010101010-55555555-|
G|-88888888-00000000-1010101010101010-55555555-|
C|-88888888-00000000-1010101010101010-55555555-|
Gtr 1
D|---------------------------------------------|
A|---------------------------------------------|
F|---------------------------------------------|
C|-88888888-00000000-1010101010101010-55555555-|
G|-88888888-00000000-1010101010101010-55555555-|
C|-88888888-00000000-1010101010101010-55555555-|
|Gtr 2                                        |
D|---------------------------------------------|
A|---------11-10~~~~~~~~~~~--------------------|
F|------10-------------------------------------|
C|-10h12---------------------------------------|
G|---------------------------------------------|
C|---------------------------------------------|
Gtr 1
D|---------------------------------------------|
A|---------------------------------------------|
F|---------------------------------------------|
C|-88888888-00000000-1010101010101010-55555555-|
G|-88888888-00000000-1010101010101010-55555555-|
C|-88888888-00000000-1010101010101010-55555555-|

Gtr 1+2
D|--------------------------------|
A|--------------------------------|
F|--------------------------------|   
C|--------------7-6---------------|
G|------8p5-5h8-----8--10p8-------|
C|--0-0---------------------10p8--|
   = =
D|-----------------------------|   
A|-----------------------------|
F|-----------------------------|     
C|---------------7-000003------|
G|------8p5-5h8----000003------|
C|--0-0------------000003------|
    = =            =====
VERSE 2
Gtr 2
D|-----------------------------------------------|
A|-----------------------------------------------|
F|-----------------------------------------------|
C|---------------------------------------000003--|
G|-00---00---0-00--00---00---00---0-00---000003--|
C|-00---00---0-00--00---00---00---0-00---000003--|

Gtr 1+2
D|--------------------------------|
A|--------------------------------|
F|--------------------------------| X3 
C|--------------7-6---------------|
G|------8p5-5h8-----8--10p8-------|
C|--0-0---------------------10p8--|
   = =

D|-----------------------------|   
A|-----------------------------|
F|-----------------------------|     
C|---------------7-000003------|
G|------8p5-5h8----000003------|
C|--0-0------------000003------|
    = =            =====
PRE CHORUS
Gtr 1+2
D|----------------------------------|
A|----------------------------------|
F|----------------------------------|
C|-----------------------------0000-|
G|-----------------------------0000-|
C|-8p5p0--8p5p0--8p5p0--8p5p0--0000-|
                               ====
CHORUS
Gtr 1+2
D|---------------------------------------------|
A|---------------------------------------------|
F|---------------------------------------------|    X4
C|-88888888-00000000-1010101010101010-55555555-|
G|-88888888-00000000-1010101010101010-55555555-|
C|-88888888-00000000-1010101010101010-55555555-|

BRIDGE
Gtr 1+2
D|---------------------------------------------|
A|---------------------------------------------|
F|---------------------------------------------|
C|-88888888-00000000-1010101010101010-55555555-|
G|-88888888-00000000-1010101010101010-55555555-|
C|-88888888-00000000-1010101010101010-55555555-|

D|-------------------------------|
A|-------------------------------|
F|----------(bass,drums)---------|
C|-8~~~-----(   ect.   )---------|
G|-8~~~--------------------------|
C|-8~~~--------------------------|
Gtr 1
..no one can touch you.....
D--20---18---17----------------------|
A---------------18---15-------11--10-|
F------------------------------------|
C------------------------------------|
G------------------------------------|
C------------------------------------|
Gtr1
D|----------------------------------------------------------------------|
A|----------------------------------------------------------------------|
F|----------------------------------------------------------------------|
C|----------------------------------------------------------------------|
G|----------------------------------------------------------------------|
C|-8p5p0-8p5p0-8p5p-8p5p0-8p5p0--10p7p0-10p7p0-10p7p0-10p7p0-10p7p0-----|
|Gtr 2
D|----------------------------------------------------------------------|
A|----------------------------------------------------------------------|
F|----------------------------------------------------------------------|
C|-----------------------------00----------------------------------03---|
G|-----------------------------00----------------------------------03---|
C|-----------------------------00----------------------------------03---|

Gtr1+2
D|----------------------------------------------------------------------|
A|----------------------------------------------------------------------|
F|----------------------------------------------------------------------| X3
C|----------------------------------------------------------------------|
G|----------------------------------------------------------------------|
C|-8p5p0-8p5p0-8p5p-8p5p0-8p5p0--10p7p0-10p7p0-10p7p0-10p7p0-10p7p0-----|

D|--------------------------------|
A|--------------------------------|
F|----(piano)---------------------|
C|---------------------000003-----|
G|---------------------000003-----|
C|---------------------000003-----|

CHORUS
Gtr 1+2
D|---------------------------------------------|
A|---------------------------------------------|
F|---------------------------------------------|    X2
C|-88888888-00000000-1010101010101010-55555555-|
G|-88888888-00000000-1010101010101010-55555555-|
C|-88888888-00000000-1010101010101010-55555555-|

Gtr 1
D|---------------------------------------------|
A|---------------------------------------------|
F|---------------------------------------------|
C|-88888888-00000000-1010101010101010-55555555-|
G|-88888888-00000000-1010101010101010-55555555-|
C|-88888888-00000000-1010101010101010-55555555-|
|Gtr2                                         |   
D|---------------------------------------------|
A|-----11-10~~~~~~----11~~--10~~---------------|               
F|---------------------------------------------|
C|--12-----------------------------------------|
G|---------------------------------------------|
C|---------------------------------------------|

Gtr 1
D|---------------------------------------------|
A|---------------------------------------------|
F|---------------------------------------------|
C|-88888888-00000000-1010101010101010-55555555-|
G|-88888888-00000000-1010101010101010-55555555-|
C|-88888888-00000000-1010101010101010-55555555-|
|Gtr2                                         |   
D|----------------------10-12-13-13b~-15b-15b~-|
A|-------------10-11-13------------------------|               
F|-------10h12---------------------------------|
C|-10h12---------------------------------------|
G|---------------------------------------------|
C|---------------------------------------------|

Gtr 1
D|---------------------------------------------|
A|---------------------------------------------|
F|---------------------------------------------|
C|-88888888-00000000-1010101010101010-55555555-|
G|-88888888-00000000-1010101010101010-55555555-|
C|-88888888-00000000-1010101010101010-55555555-|
|Gtr2                                         |   
D|--15b 15-13h15p13-12h13p12-10------------------------------|
A|-----------------------------13b-13-10h11p10---------------|             
F|-----------------------------------------------------------|
C|-----------------------------------------------1212121212--|
G|-----------------------------------------------------------|
C|-----------------------------------------------------------|
OUTRO
Gtr 1+2
D|--------------------------------|
A|--------------------------------|
F|--------------------------------|  X4
C|--------------7-6---------------|
G|------8p5-5h8-----8--10p8-------|
C|--0-0---------------------10p8--|
   = =


| /  slide up
| \  slide down
| h  hammer-on
| p  pull-off
| b  bend
| ~  vibrato
| +  harmonic
| x  Mute note
| =  Palm Mute
|A.H. Artificial Harmonic
Komentari
Još nema komentara