Angels And Airwaves

Valkyrie Missle

by: anakonda

Pronađi akord!

Ne znaš kako odsvirati neki od akorda pjesmi Valkyrie Missle? Upiši akord u tražilicu i saznaj!

Traženi akord će se prikazati ovdje

Od istog izvođača

Pregledano 1004 puta
Pregledano 945 puta
Pregledano 962 puta
Pregledano 929 puta
Pregledano 1022 puta
Trebaš ritam za ovu pjesmu? Pronađi ga ovdje
Akordi/Tabovi:
* = palm mute
~ = let ring
/// = pickslide

0:00 - 1:04
just a cool opening effects bit

1:11 - 2:15
bass part:

G|-------------------------------------------------------------------|
D|----14--14--14---12h14---16---12-----12---11---12-11h12---11---9/7-|
A|-00----0---0---0-------0----0-----00----0----0----------0----0-----|
E|-------------------------------------------------------------------|


around 2:05 - 2:15
theres a really quiet hard to hear guitar doing something like this:

E|----------|
B|----------|
G|-----7766-| it plays this decently fast/ up down palm mute
D|-7777-----|
A|----------|
E|----------|
   ********

2:15 - 2:41 and 3:56 - 4:22
guitar 1 intro/chorus

E|--------------------------------------------------------------------|
B|--------------------------------------------------------------------|
G|-----------------7777777766666666----------------7777777766666666---|
D|-7777777777777777----------------7777777777777777-------------------|
A|--------------------------------------------------------------------|
E|--------------------------------------------------------------------|
   ****************************************************************
continued..
E|--------------------------------------------------------------------|
B|--------------------------------------------------------------------|
G|-----------------7777777766666666-----------------7777777766666666--|
D|-0000000000000000-----------------0000000000000000------------------|
A|--------------------------------------------------------------------|
E|--------------------------------------------------------------------|
   *****************************************************************

guitar 2 intro/chorus

E|---------------------------------------------------------------------|
B|---------------------------------------------------------------------|
G|---------------------------------------------------------------------|
D|---------------------------------------------------------------------|
A|-000000000000000000000000000000000000000000000000000000000000000000--|
E|---------------------------------------------------------------------|
   ******************************************************************

continued..
E|---------------------------------------------------------------------|
B|---------------------------------------------------------------------|
G|---------------------------------------------------------------------|
D|---------------------------------0000000000000000000000000000000000--|
A|---------------------------------------------------------------------|
E|-00000000000000000000000000000000------------------------------------|
   ******************************************************************

2:41 - 3:31 and 4:22 - 5:12
guitar 1 verse

E|-----------------------------|
B|-----------------------------|
G|-----------------------------|
D|-7~-------------7~------7~---|
A|-0~-------------0~------0~---|
E|-5~-------------5~------4~---|

                                       "EVERYONE, EVERONE WILL LISTEN...."
guitar 2 verse

E|-----------------------------|
B|-----------------------------|
G|-66--------------99776-----4-|
D|----77-----------------------|
A|-------0~---------------0~---|
E|-----------------------------|


3:31 - 3:55 and 5:13 - 5:38
both guitars pre-chorus

E|-----------------------------|
B|-----------------------------|
G|-----------------------------|     "IF ONLY YOU'LL HOLD ON....."
D|-7~~~------------------------|
A|-0~~~------------------------|
E|-5~~~------------------------|

5:39 - 6:03
guitar 1 EPIC OUTRO PART 1

E|-------------------------------------------------------------|
B|-------------------------------------------------------------|
G|----------------------------9--------------------------------|
D|-7~~------7~~------7~~------999999999999999999999999////////-|
A|-0~~------0~~------0~~------777777777777777777777777////////-|
E|-5~~------5~~------5~~------000000000000000000000000////////-|
                               ***********************

5:39 - 6:30
guitar 2 EPIC OUTRO
with a cool guitar effect/ maybe delay or something

E|-------------------------|
B|-------------------------|
G|-1414141414-1616-131313--|
D|-------------------------|
A|-------------------------|
E|-------------------------|

6:04 - 6:30
guitar 1 EPIC OUTRO PART 2
E|-------------------------------------------------|-----------------------|
B|-------------------------------------------------|-----------------------|
G|-------------------------------------------------|-----------------------|
D|-12/11--7/9--12/11--11---12/11--7/9--12/11--11-x3|-12/11--7/9--7/9--9----|
A|-x--x---x-x--x--x---x----x--x---x-x--x--x---x----|-x--x---x-x--x-x--x----|
E|-10/9---5/7--10/9---9----10/9---5/7--10/9---9----|-10/9---5/7--5/7--7----|

continued...
E|------------------------------|
B|------------------------------|
G|------------------------------|
D|-12/11-7/9--7/9--11--7~~~-----|
A|-x--x--x-x--x-x--x---0~~~-----|    "EVERYTHING WE ARE
E|-10/9--5/7--5/7--9---5~~~-----|    WE'RE ANGELS AND AIRWAVES"
Komentari
Još nema komentara