Angels And Airwaves

Sirens

by: anakonda

Pronađi akord!

Ne znaš kako odsvirati neki od akorda pjesmi Sirens? Upiši akord u tražilicu i saznaj!

Traženi akord će se prikazati ovdje

Od istog izvođača

Pregledano 860 puta
Pregledano 926 puta
Pregledano 919 puta
Pregledano 923 puta
Pregledano 957 puta
Trebaš ritam za ovu pjesmu? Pronađi ga ovdje
Akordi/Tabovi:
Verse

Guitar 1(bass tabbed for guitar)

E|---------------------------------|
B|---------------------------------|
G|---------------------------------|
D|---------------------------------|
A|----5-5----5-5----5-5----7-7-4---|
E|-3-3-3-/7-7-7--5-5-5--5-5-5-5----|

Guitar 2

E|-------------------------|
B|---------------------77--|
G|-9-7---9-7--9-7----7-77--|
D|-7-7---7-7--7-7----------|
A|-------------------------|
E|-------------------------|


Pre Chorus

E|---------------------|
B|---------------------|
G|-7-7----7-7----7-9---|
D|-x-x----5-5----7-7---|
A|-0-0----0-0----0-0---|
E|---------------------|

Chorus Guitar 1
(long reach here)
E|------------------|
B|------------------|
G|--7----7-----7----|
D|--7----7-----7----|
A|--5----X-----5----|
E|-------3-----7----|


Chorus guitar 2
E|-------------------------|
B|-------------------------|
G|---6-7---7h9-6-7--6-7-9--|
D|--0-7-0-0---0-0-0--0-7---|
A|-------------------------|
E|-------------------------|


Bridge

e|----------------------------------------------------------|
b|----------------------------------------------------------|
G|-14--11--9-----7-7-7-7--7-9-9-5---11-11-12-11-9---5-7-7---|
D|-X---X---X-----x-x-x-x--x-x-x-x---x--x--x--x--x---x-x-x---|
A|-12--9---7-----5-5-5-5--5-7-7-5---9--9--10-9--7---5-7-5---|
E|----------------------------------------------------------|
Komentari
Još nema komentara