Bajaga

Verujem - Neverujem

by:

Pronađi akord!

Ne znaš kako odsvirati neki od akorda pjesmi Verujem - Neverujem? Upiši akord u tražilicu i saznaj!

Traženi akord će se prikazati ovdje

Od istog izvođača

Pregledano 16476 puta
220
Pregledano 16838 puta
Pregledano 11950 puta
Pregledano 6448 puta
Pregledano 7426 puta
Trebaš ritam za ovu pjesmu? Pronađi ga ovdje
Akordi/Tabovi:
Riff:
e -------------------------------------------
H -------------------------------------------
G ----------------------0-2------------------
D ----2---2-------0-2-3-----3-2-0------------
A --0---3-----2-3-----------------3-2--------
E ----------3--------------------------------



Am       C     G           C
Gluvo je doba, svi su zaspali
F              F          G
Osecam strasan nedostatak buke
Am      C        G         C
Hocu da vristim, a ne mogu sam
F              C            G
Ljudi su danas osetljivi na zvuke

       Am
Jer je noc, noc, noc, noc
G          C
Totalni je mrak
F             C
Nista se vise ne vidi u tami
      Am        G         C
I ovo svetlo je usamljeni zrak
F             C
Osecam ipak k'o da nismo sami
     Am
Ti i ja

Verujem
Ne verujem

Ustani, nije vreme spavanja
Dodji da cujes pobednicke trube
Umij se vodom sa ovog izvora
Napolju ljudi pevaju kroz zube

Jer je noc, noc...

Am  GC  FC      G    Am
    Verujem - Ne verujem

Cekamo jutro da se razdani,
Da neko dodje i donese svecu
U ovom mraku covek ne vidi
A ja da cekam ne mogu i necu
Komentari

marko18250 kaže:

E -------------------------------------------
H -------------------------------------------
G ----------------------0-2------------------
D ----2---2--------2-3-----3-2-0------------
A --0---3-----2-3-----------------3-2--------
E ----------3--------------------------------

E tako ide

24-10-2013 18:41