Angels And Airwaves

Do It For Me Now

by: anakonda

Pronađi akord!

Ne znaš kako odsvirati neki od akorda pjesmi Do It For Me Now? Upiši akord u tražilicu i saznaj!

Traženi akord će se prikazati ovdje

Od istog izvođača

Pregledano 944 puta
Pregledano 889 puta
Pregledano 994 puta
Pregledano 943 puta
Pregledano 962 puta
Trebaš ritam za ovu pjesmu? Pronađi ga ovdje
Akordi/Tabovi:
INTRO:

GUITAR 1:  using Delay
E|--------------------------------------------------|
B|--------------------------------------------------|
G|--------------------------------------------------|
D|-----8-8x-8-8x-8-8x-8x-8-8------------------------|
A|--------------------------------------------------|
E|--------------------------------------------------|

GUITAR 2:  using Delay
E|--------------------------------------------------|
B|--------------------------------------------------|
G|--------------------------------------------------|
D|-----10x1010x1010---9x99x99-----------------------|3x
A|--------------------------------------------------|
E|--------------------------------------------------|
       pm.......................

E|--------------------------------------------------|
B|--------------------------------------------------|
G|--------------------------------------------------|
D|-----10x1010x1010---9x99x99---7x77x77-------------|
A|--------------------------------------------------|
E|--------------------------------------------------|


VERSES 1 AND 2:

GUITAR 1:  using Delay
E|--------------------------------------------------|
B|--------------------------------------------------|
G|--------------------------------------------------|
D|-----8-8x-8-8x-8-8x-8x-8-8------------------------|
A|--------------------------------------------------|
E|--------------------------------------------------|

GUITAR 2:  using Delay
E|--------------------------------------------------|
B|--------------------------------------------------|
G|--------------------------------------------------|
D|-----10x1010x1010---9x99x99-----------------------|3x
A|--------------------------------------------------|
E|--------------------------------------------------|
       pm.......................

E|--------------------------------------------------|
B|--------------------------------------------------|
G|--------------------------------------------------|
D|-----10x1010x1010---9x99x99---7x77x77-------------|
A|--------------------------------------------------|
E|--------------------------------------------------|


CHORUS:

Guitar 1:  using clean tone

E|-----2------0---------------------------------|
B|-----2------3--------0-------0----------------|
G|-----2------2--------2-------1----------------|2x
D|-----4------0--------2-------2----------------|
A|-----4---------------0-------2----------------|
E|-----2-----------------------0----------------|

GUitar 2:  using clean tone

E|-----------------------------------------------|
B|------------------12-10------------12-10-------|
G|------------6-7-9------------6-7-9-------------|2x
D|-----------------------------------------------|
A|-----------------------------------------------|
E|-----------------------------------------------|


[REPEAT INTRO]


VERSE 3:

GUITAR 1: using Delay
E|--------------------------------------------------|
B|--------------------------------------------------|
G|--------------------------------------------------|
D|-----8-8x-8-8x-8-8x-8x-8-8------------------------|
A|--------------------------------------------------|
E|--------------------------------------------------|


[REPEAT CHORUS]


ADLIB:

GUITAR 1:  using Delay
E|--------------------------------------------------|
B|--------------------------------------------------|
G|--------------------------------------------------|
D|-----8-8x-8-8x-8-8x-8x-8-8------------------------|
A|--------------------------------------------------|
E|--------------------------------------------------|

GUITAR 2:  using clean tone

E|-----9-5-7-9-5-7-9-5-7-9-5------------------------|
B|--------------------------------------------------|
G|--------------------------------------------------|4X
D|--------------------------------------------------|
A|--------------------------------------------------|
E|--------------------------------------------------|


OUTRO: Now just hold on.....

GUITAR 1:  using Delay
E|--------------------------------------------------|
B|--------------------------------------------------|
G|--------------------------------------------------|
D|-----8-8x-8-8x-8-8x-8x-8-8------------------------|
A|--------------------------------------------------|
E|--------------------------------------------------|

GUITAR 2:  using Delay
E|--------------------------------------------------|
B|--------------------------------------------------|
G|--------------------------------------------------|
D|-----10x1010x1010---9x99x99-----------------------|
A|--------------------------------------------------|
E|--------------------------------------------------|
       pm.......................

E|--------------------------------------------------|
B|--------------------------------------------------|
G|--------------------------------------------------|
D|-----10x1010x1010---9x99x99---7x77x77-------------|
A|--------------------------------------------------|
E|--------------------------------------------------|
Komentari
Još nema komentara