Angels And Airwaves

A Littles Enough

by: anakonda

Pronađi akord!

Ne znaš kako odsvirati neki od akorda pjesmi A Littles Enough? Upiši akord u tražilicu i saznaj!

Traženi akord će se prikazati ovdje

Od istog izvođača

War
Pregledano 913 puta
Pregledano 923 puta
Pregledano 885 puta
Pregledano 958 puta
Pregledano 928 puta
Trebaš ritam za ovu pjesmu? Pronađi ga ovdje
Akordi/Tabovi:
Standard Tuning

( ) = Delayed Notes
x  = Palm Muted



Effects 0:00-00:28


Intro Riff " When All Is Said and Done..."
e|--------------------------|--------------------------------|
b|----9-10-----(9)-(10)-----|---9-10----(9)-(10)----(9)-(10)-|
g|--9-------(9)-------------|-9------(9)---------(9)---------|
d|--------------------------|--------------------------------|
a|--------------------------|--------------------------------|
E|--------------------------|--------------------------------|

e|-------------------------------------|---------------------|
b|----10-12-----(10)-(12)----(10)-(12)-|---9-10----(9)-(10)--|
g|--9--------(9)----------(9)----------|-9------(9)----------|
d|-------------------------------------|---------------------|
a|-------------------------------------|---------------------|
E|-------------------------------------|---------------------|

e|----------------------|------------------------------------|
b|----9-10-----(9)-(10)-|---10-12-----(10)-(12)----9-10------|
g|--9-------(9)---------|-9--------(9)-----------9-----------|
d|----------------------|------------------------------------|
a|----------------------|------------------------------------|
E|----------------------|------------------------------------|


Riff 2 All Notes Ring Out "I, I Can Do Anything..."
e|--------------------------|------------------------|
b|--------------------------|------------------------|
g|------2----2------2-----2-|-----2-----2----2-----2-|
d|--------------------------|------------------------|
a|--------------------------|------------------------|
E|--2-2---2-2---2-2---2-2---|-0-0---0-0---0-0---0-0--|
                                                     |x2
e|--------------------------|------------------------|
b|--------------------------|------------------------|
g|--------------------------|------------------------|
d|--4-4---------------4-4---|-2-2---------------2-2--|
a|--x-x---------------x-x---|-x-x---------------x-x--|
E|--2-2---------------2-2---|-0-0---------------0-0--|


e|--------------------------|------------------------|
b|--------------------------|------------------------|
g|------2----2------2-----2-|-----2-----2----2-----2-|
d|--------------------------|------------------------|
a|--4-4---4-4---4-4---4-4---|-2-2---2-2---2-2---2-2--|
E|--------------------------|------------------------|
                                                     |x2
e|--------------------------|------------------------|
b|--------------------------|------------------------|
g|--------------------------|------------------------|
d|-11-11-------------11-11--|-9-9----------------9-9-|
a|-x--x---------------x-x---|-x-x----------------x-x-|
E|-9--9---------------9-9---|-7-7----------------7-7-|



Guitar Break
e|--------------|-----------|------------|-------------|
b|--------------|-----------|------------|-------------|
g|--------------|-----------|------------|-------------|
d|--------------|-----------|------2-----|-------------|
a|-0--0--0--0---|0--0--2--2-|--0-0----0--|-0--0--2--2--|
E|--5--5--5--5--|-4--4--4--4|-2---2--2--2|--4--4--4--4-|
   xx xx xx xx   xx xx xx xx               xx xx xx xx

e|--------------|-----------|------------|-------------|
b|--------------|-----------|------------|-------------|
g|--------------|-----------|------------|-------------|
d|---------2----|-----------|------2-----|-------------|
a|---0-0-----0--|0--0--2--2-|--0-0----0--|-0--0---2----|
E|-5-----5--5-5-|-4--4--4--4|-2---2--2--2|--2--4--4----|
                 xx xx xx xx               xx xx xx

Verse " Green Trees Were The First Sign..."
e|--------------------------|------------------------|
b|--------------------------|------------------------|
g|------2----2------2-----2-|-----2-----2----2-----2-|
d|--------------------------|------------------------|
a|--------------------------|-0-0---0-0---0-0--0-0---|
E|--2-2---2-2---2-2---2-2---|------------------------|
                                                      x2
e|--------------------------|------------------------|
b|--------------------------|------------------------|
g|------2----2-------2----2-|-----2-----2----2-----2-|
d|--------------------------|------------------------|
a|--------------------------|-0-0---0-0---0-0--0-0---|
E|--0-0---0-0---0-0---0-0---|------------------------|


Riff 2 "I, I Can Do Anything..."
e|--------------------------|------------------------|
b|--------------------------|------------------------|
g|------2----2------2-----2-|-----2-----2----2-----2-|
d|--------------------------|------------------------|
a|--------------------------|------------------------|
E|--2-2---2-2---2-2---2-2---|-0-0---0-0---0-0---0-0--|
                                                     |x2
e|--------------------------|------------------------|
b|--------------------------|------------------------|
g|--------------------------|------------------------|
d|--4-4---------------4-4---|-2-2---------------2-2--|
a|--x-x---------------x-x---|-x-x---------------x-x--|
E|--2-2---------------2-2---|-0-0---------------0-0--|


e|--------------------------|------------------------|
b|--------------------------|------------------------|
g|------2----2------2-----2-|-----2-----2----2-----2-|
d|--------------------------|------------------------|
a|--4-4---4-4---4-4---4-4---|-2-2---2-2---2-2---2-2--|
E|--------------------------|------------------------|
                                                     |x2
e|--------------------------|------------------------|
b|--------------------------|------------------------|
g|--------------------------|------------------------|
d|-11-11-------------11-11--|-9-9----------------9-9-|
a|-x--x---------------x-x---|-x-x----------------x-x-|
E|-9--9---------------9-9---|-7-7----------------7-7-|

Chorus "I'm Sorry I Have To Say It..."
e|-------------|-------------|-------------|--------|----------|
b|-------------|-------------|-------------|--------|----------|
g|-------------|-------------|-------------|--------|----------|
d|-7-7--7--7-7-|-7-7--7--7-7-|-4-4--4--4-4-|-2-2--2-|-12-12--12|x2
a|-x-x--x--x-x-|-x-x--x--x-x-|-x-x--x--x-x-|-x-x--x-|-x--x---x-|
E|-5-5--5--5-5-|-4-4--4--4-4-|-2-2--2--2-2-|-0-0--0-|-10-10--10|

e|---|
b|---|
g|---|
d|-7-|Let Ring
a|-x-|
E|-5-|

Both Guitars Clean W/ Delay
e|--5---7----9-----4---|
b|-----5--5-----5----5-|
g|---------------------|
d|---------------------|
a|---------------------|
E|---------------------|
       |
e|---------------------|
b|---------------------|
g|--9-x-x-x-7--6-6-x-x-|
d|---------------------|
a|---------------------|
E|---------------------|

Outro "Just a Little, Just A Little.."
e|-5-----------|-5-----------|-5-----------|-7----9-|---4------|
b|---5--(5)--5-|---5-(5)-----|---5-(5)-----|---5----|-5--------|
g|-------------|-------------|-------------|--------|----------|
d|-------------|-------------|-------------|--------|----------|
a|-------------|-------------|-------------|--------|----------|
E|-------------|-------------|-------------|--------|----------|

e|-------------|-------------|-------------|--------|----------|
b|-------------|-------------|-------------|--------|----------|
g|-------------|-------------|-------------|--------|----------|
d|-7-7--7--7-7-|-7-7--7--7-7-|-4-4--4--4-4-|-2-2--2-|-12-12--12|x2
a|-x-x--x--x-x-|-x-x--x--x-x-|-x-x--x--x-x-|-x-x--x-|-x--x---x-|
E|-5-5--5--5-5-|-4-4--4--4-4-|-2-2--2--2-2-|-0-0--0-|-10-10--10|
Komentari
Još nema komentara