Aly And Aj

No One

by: anakonda

Pronađi akord!

Ne znaš kako odsvirati neki od akorda pjesmi No One? Upiši akord u tražilicu i saznaj!

Traženi akord će se prikazati ovdje

Od istog izvođača

Pregledano 1038 puta
Pregledano 1259 puta
Pregledano 1132 puta
Pregledano 1257 puta
Pregledano 1022 puta
Trebaš ritam za ovu pjesmu? Pronađi ga ovdje
Akordi/Tabovi:
INTRO (palm-mute on first time):
E|-0-0-0-0--0-0-0--0-0-0-0--0-0-0-|
B|-3-3-3-3--3-3-3--5-5-5-5--7-5-7-|
G|-0-0-0-0--0-0-0--0-0-0-0--0-0-0-| x4
D|-0-0-0-0--0-0-0--0-0-0-0--0-0-0-|
A|-2-2-2-2--3-3-3--5-5-5-5--5-3-5-|
E|-x-x-x-x--x-x-x--x-x-x-x--x-x-x-|

VERSE 1:
E|-0-0-0-0--0-0-0--0-0-0-0--0-0-0-|
B|-3-3-3-3--3-3-3--5-5-5-5--7-5-7-|
G|-0-0-0-0--0-0-0--0-0-0-0--0-0-0-| x4
D|-0-0-0-0--0-0-0--0-0-0-0--0-0-0-|
A|-2-2-2-2--3-3-3--5-5-5-5--5-3-5-|
E|-x-x-x-x--x-x-x--x-x-x-x--x-x-x-|

PRE-CHORUS:
E|-3-3---2-2---0-0---3-2---3-3---2-2---0-0-0-|
B|-3-3---3-3---1-1---3-3---3-3---3-3---1-1-1-|
G|-0-0---2-2---0-0---0-2---0-0---2-2---0-0-0-|
D|-0-0---0-0---2-2---0-0---0-0---0-0---2-2-2-|
A|-2-2---x-x---3-3---2-x---2-2---x-x---3-3-3-|
E|-3-3---x-x---x-x---3-x---3-3---x-x---x-x-x-|

CHORUS:
E|-0-0-0-0--0-0-0--0-0-0-0--0-0-0-|
B|-3-3-3-3--3-3-3--5-5-5-5--7-8-7-|
G|-0-0-0-0--0-0-0--0-0-0-0--0-0-0-| x4
D|-0-0-0-0--0-0-0--0-0-0-0--0-0-0-|
A|-2-2-2-2--3-3-3--5-5-5-5--5-7-5-|
E|-x-x-x-x--x-x-x--x-x-x-x--x-x-x-|

VERSE 2 (same chords as verse 1)

PRE-CHORUS

CHORUS

BRIDGE:
E|-3-3---2-2---0-0---3-2---3-3---2-2---0-0---2-|
B|-3-3---3-3---1-1---3-3---3-3---3-3---1-1---3-|
G|-0-0---2-2---0-0---0-2---0-0---2-2---0-0---2-|
D|-0-0---0-0---2-2---0-0---0-0---0-0---2-2---0-|
A|-2-2---x-x---3-3---2-x---2-2---x-x---3-3---x-|
E|-3-3---x-x---x-x---3-x---3-3---x-x---x-x---x-|

CHORUS

ENDING:
E|-0-0-0-0--0-0-0--0-0-0-0--0-0-|
B|-3-3-3-3--5-5-5--5-5-5-5--7-8-|
G|-0-0-0-0--0-0-0--0-0-0-0--0-0-|
D|-0-0-0-0--0-0-0--0-0-0-0--0-0-|
A|-2-2-2-2--3-3-3--5-5-5-5--5-7-|
E|-x-x-x-x--x-x-x--x-x-x-x--x-x-|

----------------------------------------------------------------------------
ALY’S PART

INTRO (palm-muted on first time):
E|-0-0-0-0--0-0-0--0-0-0-0--0-0-0-|
B|-0-0-0-0--3-3-3--5-5-5-5--3-3-3-|
G|-0-0-0-0--0-0-0--0-0-0-0--2-2-2-| x4
D|-2-2-2-2--0-0-0--0-0-0-0--0-0-0-|
A|-2-2-2-2--3-3-3--5-5-5-5--0-0-0-|
E|-x-x-x-x--x-x-x--x-x-x-x--2-2-2-|

VERSE 1:
E|-0-0-0-0--0-0-0--0-0-0-0--0-0-0-|
B|-0-0-0-0--3-3-3--5-5-5-5--3-3-3-|
G|-0-0-0-0--0-0-0--0-0-0-0--2-2-2-| x4
D|-2-2-2-2--0-0-0--0-0-0-0--0-0-0-|
A|-2-2-2-2--3-3-3--5-5-5-5--0-0-0-|
E|-x-x-x-x--x-x-x--x-x-x-x--2-2-2-|

PRE-CHORUS:
E|-7-7---10-10---8-8---7-10---7-7---10-10---8-8-8-|
B|-8-8---10-10---8-8---8-10---8-8---10-10---8-8-8-|
G|-9-9---7--7----5-5---9-7----9-9---7--7----5-5-5-|
D|------------------------------------------------|
A|------------------------------------------------|
E|------------------------------------------------|

CHORUS:
E|-0-0-0-0--0-0-0--0-0-0-0--0-0-0-|
B|-0-0-0-0--3-3-3--5-5-5-5--3-3-3-|
G|-0-0-0-0--0-0-0--0-0-0-0--2-2-2-| x4
D|-2-2-2-2--0-0-0--0-0-0-0--0-0-0-|
A|-2-2-2-2--3-3-3--5-5-5-5--0-0-0-|
E|-x-x-x-x--x-x-x--x-x-x-x--2-2-2-|

VERSE 2 (same chords as verse 1)

PRE-CHORUS

CHORUS

BRIDGE:
E|-7-7---10-10---8-8---7-10---7-7---10-10---8-8-10-|
B|-8-8---10-10---8-8---8-10---8-8---10-10---8-8-10-|
G|-9-9---7--7----5-5---9-7----9-9---7--7----5-5-7--|
D|-------------------------------------------------|
A|-------------------------------------------------|
E|-------------------------------------------------|

CHORUS

ENDING:
E|-0-0-0-0--0-0-0--0-0-0-0--0-0-|
B|-0-0-0-0--3-3-3--5-5-5-5--3-3-|
G|-0-0-0-0--0-0-0--0-0-0-0--2-2-|
D|-2-2-2-2--0-0-0--0-0-0-0--0-0-|
A|-2-2-2-2--3-3-3--5-5-5-5--0-0-|
E|-x-x-x-x--x-x-x--x-x-x-x--2-2-|

----------------------------------------------------------------------------
LYRICS:

VERSE 1
I am moving through the crowd
Trying to find myself
Feel like a guitar that's never played
Will someone strum away?

PRE-CHORUS
And I ask myself
Who do I wanna be?
Do I wanna throw away the key?
and invent a whole new me
and I tell myself

CHORUS
No One, No One
Don't wanna be
No One
But me..

VERSE 2
You are moving through the crowd
Trying to find yourself
Feel like a doll left on a shelf
Will someone take you down?

PRE-CHORUS
And you ask yourself
Who do I wanna be?
Do I wanna throw away the key?
and invent a whole new me
Gotta tell yourself

CHORUS
No One, No One
Don't wanna be
No One
But me..

BRIDGE
Your life plays out on the shadows of the wall
You turn the light on to erase it all
You wonder what it's like to not feel worthless
So open all the blinds and turn the curtains

CHORUS
No One, No One
Don't wanna be
No One
But me..

ENDING
We are moving through the crowd...
Komentari
Još nema komentara