All That Remains

This Calling

by: anakonda

Pronađi akord!

Ne znaš kako odsvirati neki od akorda pjesmi This Calling? Upiši akord u tražilicu i saznaj!

Traženi akord će se prikazati ovdje

Od istog izvođača

Pregledano 956 puta
Pregledano 1199 puta
Pregledano 983 puta
Six
Pregledano 971 puta
Pregledano 862 puta
Trebaš ritam za ovu pjesmu? Pronađi ga ovdje
Akordi/Tabovi:
intro Guitar 1
[-------------------------------------------------------]
[-------------------------------------------------------]@
[-9-----------------------------------------------------]
[-9---------------------7-7/9--------------5-----7------]  x4
[-7---------------------3/5/7--------------3-----5------]@
[---000-000-000-000-000--------000-000-000---000---000--]
    ... ... ... ... ...        ... ... ...   ...   ...          listen to the song for
changes in the rhythm
intro Guitar 2
[-----------------------------------------------------------]
[-----------------------------------------------------------]@
[-9--------------------12\11\9--------------5-----7---------]
[-9---------------------9--9-9--------------5-----7---------]  X4
[-----------------------------------------------------------]@
[---000-000-000-000-000---------000-000-000---000---000-----]
    ... ... ... ... ...         ... ... ...   ...   ...
Fill berfore chorus 1st and 3rd time (both guitars)
[------------------------------------]
[------------------------------------]
[--9---7---9~------------------------]
[--9---7---9~------------------------]
[--7---5---7~------------------------]
[----0---0---------------------------]
     .   .
Chorus Guitar 1 (Heavy distorted)
[---3------5-----7--10--7---]
[--3-3----5-5-----7---7--7--]@
[-5---5--7---7--9--9---7--9-]
[-5------7------9-----------]   X2
[-3------5------7-----------]@
[-3------5------7-----------]

Chorus guitar 2 (Overdriven slightly)
[---3-----5------7--10--7---]
[--3-3---5-5------7---7--7--]@
[-5---5--7---7--9--9---7--9-]
[-5------7------9-----------]  X2
[-3------5------7-----------]@
[---------------------------]

intro,chorus...then


Bridge part 1: guitar 1                    1st & 3rd time
[----------------------------------------[--------]
[----------------------------------------[--------]
[-4-------4----------------------5---4---[--------]
[-2-------2------5-4h5p4---2p0---x---x---[-----5\-] X4
[------------------------5-----2\3---2---[--578---]
[--0-0-0-0--00-0-------------------------[--------]
   . . . .  .. .
Bridge part 1: guitar 2                           1st & 3rd   2nd & 4th
[---------------[---------------------]--------------[--------][----------]
[---------------[---------------------]--------------[--------][----------]
[-4-------4-----[---------------------]-5-5-4----4---[--------][-4--------]
[-2-------2-----[-5-4h5p4---2p0-------]0-0----2-2-----[----245-][--5------]
[---------------[---------5-----2\3-00]--------2-----[-245----][---5\7----]
[--0-0-0-0--00-0[---------------------]--------------[--------][----------]
                  swap in after 2x              ..
After twice     [---------------------]
Guitar 2 plays  [---------------------]
this with the   [-4-2h4p2-------------]
rest of the riff[---------4/5\4 0h2-22]
for the last 2  [---------------------]
times           [---------------------]

Bridge part 2: guitar 2  (first time only)                    at end of second breakdown \/
[----------------------------------------------------------------------------------]  [----------]
[----------------------------------------------------------------------------------]  [----------]
[-12------9----7---5--4-/11--12--9~~~~~--------------------------------------------]  [----------]
[-12------9----7---5--4-/11--12--9~~~~~-------fades out as second time through-----]  [----------]
[-10------7----5---3--2-/9---10--7~~~~~-------breakdown is played------------------]  [---7*b----]
[-10------7----5---3--2-/9---10--7~~~~~--------------------------------------------]  [------9*bb]

Bridge part 2: guitar 1 (after 2nd time both guitars)
[------------------------------------------------------------------------------]
[------------------------------------------------------------------------------]@
[------------------------------------------------------------------------------]    3x!!!!!!!
[------------------------------------------------------------------------------]
[------------------------------------------------------------------------------]@
[-000-000-000-000-000--000-000-000--000--000-000-000-000-000--000-000-000--000-]
  ... ... ... ... ...  ... ... ...  ...  ... ... ... ... ...  ... ... ...  ...

solo Lead
[----------------------------------------------------------------------------------]
[--------------------------------------------------------15+17+22p15h24b^^---------]
[-11--13-14--14b\11b^^--7+9+14-9+11+16-12+14+19-15+17+22---------------------------]
[----------------------------------------------------------------------------------]
[----------------------------------------------------------------------------------]
[----------------------------------------------------------------------------------]

[-------------------------------------------------------------------------]
[-24/21/19h21-19/17h19-17/15h17-15----------------------------------------]
[----------------------------------19p17h19-------------------------------]
[-------------------------------------------19p17h19/21p19h21-------------]
[------------------------------------------------------------19h21p19h21--]
[-------------------------------------------------------------------------]

[-----------------------------------------------------------------------------]
[-----------------------------------------------------------------------------]
[-19-17-15---------17-15-13---------15-13-11--------13-11-9---------9-10-12---]
[---------19-17-15---------17-15-13---------15-13-11-------13-11-9--x--x--x---]
[-------------------------------------------------------------------7--8-10---]
[-----------------------------------------------------------------------------]
into chorus last time

Rhythm behind solo
[---------------------------5----------------]
[-------------------------5---5--------------]
[-5--7--9--12--11-7--5--7-------9-10-12------]
[-5--7--9--12--11-7--5--7-------x-x---x------] into chorus last time, then intro 4 times
[-3--5--7--10--9--5--3--5-------7-8--10------]
[-3--5--7--10--9--5--3--5--------------------]

End mini - solo
Guitar 1
[--------------------------------------------]
[--------------------------------------------]
[--16~-14b^~--11-h12~--9b^^^~~~~~------------]
[--------------------------------------------]
[--------------------------------------------]
[--------------------------------------------]
Guitar 2                                       both parts play together behind gunning rhythm
[--------------------------------------------] then end with the fill from
[--------------------------------------------]
[--------------------------------------------]first verse
[--17~-16b^~--12-h14~------------------------]
[------------------------14b^^^~~~~~---------]
[--------------------------------------------]
Komentari
Još nema komentara