Alesana

Apology

by: anakonda

Pronađi akord!

Ne znaš kako odsvirati neki od akorda pjesmi Apology? Upiši akord u tražilicu i saznaj!

Traženi akord će se prikazati ovdje

Od istog izvođača

Pregledano 853 puta
Pregledano 992 puta
Pregledano 1072 puta
Pregledano 903 puta
Pregledano 1026 puta
Trebaš ritam za ovu pjesmu? Pronađi ga ovdje
Akordi/Tabovi:
Intro: Guitar 1 (Clean)
|-------5---|
|7--5-------|
|--0--0-----|          x about 29 times
|-----------|
|-----------|
|-----------|

Intro: Guitar 2 (Clean)
|------------|
|------------|
|------------|         x 4 times
|5~--7~--9~--|
|5~--7~--9~--|
|5~--7~--9~--|

*Note: This next part was hard to figure out, so it may be wrong but it sounds ok to the song...

Verse: Guitar 1 (Distortion)
|-----------|
|--------7p0|
|9p0-7p0----|      x6 then
|-----------|
|-----------|
|-----------|

|-----------|
|----7--7---|
|9-7-----9-7|
|-----------|
|-----------|
|-----------|

Verse: Guitar 2 (Distortion)
|----------------------------------|
|----------------------------------|
|----------------------------------|
|5555555--7777777--9999999--9999999|   x 3 then
|5555555--7777777--9999999--9999999|
|5555555--7777777--9999999--9999999|

|----------------|
|----------------|
|----------------|
|5555555--7777777|
|5555555--7777777|
|5555555--7777777|

Just Strum up and down these chords.
|--------------------------------------------------|
|--------------------------------------------------|
|--------------------------------------------------|
|999999999999999999999999-555555555555-777777777777| x2
|999999999999999999999999-555555555555-777777777777|
|999999999999999999999999-555555555555-777777777777|

In The Chorus. Guitar 1 does something fancy after he plays the main lick twice, I just
to play the same lick throughout the whole chorus.

Chorus: Guitar 1 (Distortion)
|----5------|
|--5---8-7-5|
|7----------|
|-----------|   x 10 times
|-----------|
|-----------|

Chorus: Guitar 2 (Distortion)
|-------------------------------------------------------|
|-------------------------------------------------------|
|-------------------------------------------------------|
|999999-999999-777777-777777-444444-444444-555555-555555| x1 time then rest
|999999-999999-777777-777777-444444-444444-555555-555555|    2 measures
|999999-999999-777777-777777-444444-444444-555555-555555|

Verse: Guitar 1 (Distortion)
|-----------|
|--------7p0|
|9p0-7p0----|      x6 then
|-----------|
|-----------|
|-----------|

|-----------|
|----7--7---|
|9-7-----9-7|
|-----------|
|-----------|
|-----------|

Verse: Guitar 2 (Distortion)
|----------------------------------|
|----------------------------------|
|----------------------------------|
|5555555--7777777--9999999--9999999|   x 3 then
|5555555--7777777--9999999--9999999|
|5555555--7777777--9999999--9999999|

|----------------|
|----------------|
|----------------|
|5555555--7777777|
|5555555--7777777|
|5555555--7777777|

Guitars 1 and 2 (Distortion)
|-----|
|-----|
|-----|
|4~~~-|
|4~~~-|
|4~~~-|

Chorus: Guitar 1 (Distortion)
|----5------|
|--5---8-7-5|
|7----------|
|-----------|   x 16 times
|-----------|
|-----------|

Chorus: Guitar 2 (Distortion)
|-------------------------------------------------------|
|-------------------------------------------------------|
|-------------------------------------------------------|
|999999-999999-777777-777777-444444-444444-555555-555555| x 2 times
|999999-999999-777777-777777-444444-444444-555555-555555|
|999999-999999-777777-777777-444444-444444-555555-555555|

Both Guitars Rest

Interlude: Guitar 1 (Clean)
|-------5---|
|7--5-------|
|--0--0-----|          x 12 times
|-----------|
|-----------|
|-----------|

Interlude: Guitar 2 (Distortion)
|------------|
|------------|
|------------|       x 1 time then
|5~--7~--9~--|
|5~--7~--9~--|
|5~--7~--9~--|

|--------|
|--------|
|--------|
|5~--7~--|
|5~--7~--|
|5~--7~--|

Verse: Guitar 1 (Distortion)
|-----------|
|--------7p0|
|9p0-7p0----|      x2 then
|-----------|
|-----------|
|-----------|

|-----------|
|----7--7---|
|9-7-----9-7|
|-----------|
|-----------|
|-----------|

Then:
|-----------|
|--------7p0|
|9p0-7p0----|      x 12 times
|-----------|
|-----------|
|-----------|

Verse: Guitar 2 (Distortion)
|----------------------------------|
|----------------------------------|
|----------------------------------|
|9999999--9999999--5555555--7777777| x1
|9999999--9999999--5555555--7777777|
|9999999--9999999--5555555--7777777|

Strumming:
|--------------------------------------------------|
|--------------------------------------------------|
|--------------------------------------------------|
|999999999999999999999999-555555555555-777777777777| x1
|999999999999999999999999-555555555555-777777777777|
|999999999999999999999999-555555555555-777777777777|

Bridge: Guitar 1 (rest for 4 measures)

Bridge: Guitar 2 (Distortion)
|------------------------|
|------------------------|
|------------------------|
|999-9--999-9--999-9--999|
|999-9--999-9--999-9--999|
|999-9--999-9--999-9--999|

*Note: In the bridge, Guitar 1 strums each note 4 times

Bridge: Guitar 1 (Distortion)
|---------------------------------|
|---------------------------------|
|---------------------------------|
|11/12/14\12--9/11/12\11--8/8/9/11|
|---------------------------------|
|---------------------------------|

Bridge: Guitar 2 (Distortion)
|--------------------------------------------------------------------------|
|--------------------------------------------------------------------------|
|--------------------------------------------------------------------------|
|999-9--999-9--999-9--999--777-7--777-7--777-7--777--444-4--444-4--444-4--4|
|999-9--999-9--999-9--999--777-7--777-7--777-7--777--444-4--444-4--444-4--4|
|999-9--999-9--999-9--999--777-7--777-7--777-7--777--444-4--444-4--444-4--4|

Bridge Guitar 1 (Distortion)
|---------------------------------------------|
|---------------------------------------------|
|---------------------------------------------|
|11/12/14\12--9/11/12/14--11/12/14\12--8/8/9--|
|---------------------------------------------|
|---------------------------------------------|

Bridge: Guitar 2 (Distortion)
|--------------------------------------------------|
|--------------------------------------------------|
|--------------------------------------------------|
|999-9--999-9--999-9--999--555-5--555-5--555-5--555|
|999-9--999-9--999-9--999--555-5--555-5--555-5--555|
|999-9--999-9--999-9--999--555-5--555-5--555-5--555|

|-------------------------------------------------|
|-------------------------------------------------|
|-------------------------------------------------|
|777-7--777-7--777-7--777--444-4--444-4--444-4--4~|
|777-7--777-7--777-7--777--444-4--444-4--444-4--4~|
|777-7--777-7--777-7--777--444-4--444-4--444-4--4~|

Chorus: Guitar 1 (Distortion)
|----5------|
|--5---8-7-5|
|7----------|
|-----------|   x 16 times
|-----------|
|-----------|

Chorus: Guitar 2 (Distortion)
|-------------------------------------------------------|
|-------------------------------------------------------|
|-------------------------------------------------------|
|999999-999999-777777-777777-444444-444444-555555-555555| x 2 times
|999999-999999-777777-777777-444444-444444-555555-555555|
|999999-999999-777777-777777-444444-444444-555555-555555|

Outro: Guitar 1 (Distortion)
|----5------|
|--5---8-7-5|
|7----------|
|-----------|   x 7 times
|-----------|
|-----------|

|--------------------------------------------|
|--------------------------------------------|
|-----------------------(5)------------------|
|999---999---555---555-(5)-777---777---444---|
|999---999---555---555(5)--777---777---444---|
|999---999---555---555-----777---777---444---|

Outro: Both Guitars
|-------------------|
|-------------------|
|-------------------|
|4-4444--4-4444--9~~|
|4-4444--4-4444--9~~|
|4-4444--4-4444--9~~|
   ....    ....
    PM      PM

Legend:
p= pull off
(5)= harmonic
.= Palm Mute
Komentari
Još nema komentara