Alesana

Ambrosia

by: anakonda

Pronađi akord!

Ne znaš kako odsvirati neki od akorda pjesmi Ambrosia? Upiši akord u tražilicu i saznaj!

Traženi akord će se prikazati ovdje

Od istog izvođača

Pregledano 1005 puta
Pregledano 914 puta
Pregledano 1040 puta
Pregledano 830 puta
Pregledano 866 puta
Trebaš ritam za ovu pjesmu? Pronađi ga ovdje
Akordi/Tabovi:
Tunning DROPPED D, here you go:

[INTRO]

Guitar 1
e|----|
B|----|
G|----|
D|-0*-|
A|-0*-|
D|-0*-|

Guitar 2
e|-----------------------|x4
B|-----------------------|
G|-----------------------|
D|-5p0-3p0-2h3p2-3p0-----|
A|-------------------3p0-|
D|-----------------------|

"A touch of poison, seals my fate!"

Continues...

Guitar 1
e|-----------|
B|-----------|
G|-----------|
D|-10-8-7-0*-|
A|-10-8-7-0*-|
D|-10-8-7-0*-|

e|----------|
B|----------|
G|----------|
D|-0-000000-|
A|-0-000000-|
D|-0-000000-|
PM   ......

Then...

Guitar 1
e|---------|
B|---------|
G|-------7-|
D|-5-7-8---|
A|---------|
D|---------|

Guitar 2
e|-------------|
B|----------15-|
G|-12-14-15----|
D|-------------|
A|-------------|
D|-------------|

[VERSE] x2 "Once king of roses..."

Guitar 1 and 3
e|---------------------------------------------------------|
B|---------------------------------------------------------|
G|---------------------------------------------------------|
D|-5-555555555555555-----------3-333333333333333-----------|
A|-5-555555555555555-----------3-333333333333333-----------|
D|-5-555555555555555-----------3-333333333333333-----------|
PM   ...............             ...............       

Guitar 2 (I prefer Alternate picking than hammering)
e|---------------------------------------------------------|
B|---------------------------------------------------------|
G|---------------------------7---------------------------8-|
D|-5-7-8-5-7-8-5-7-8-5-7-8-5---5-7-8-5-7-8-5-7-8-5-7-8-5---|
A|---------------------------------------------------------|
D|---------------------------------------------------------|

"Blessed with the gift, a gilded touch..."

Guitar 1
e|-------------------------------------|    |--------------|
B|-------------------------------------|    |--------------|
G|-------------------------------------|    |-8-88---7-77--|
D|-1-111111111111111-0-000000000000000-| or |-8-88---7-77--|
A|-1-111111111111111-0-000000000000000-|    |-6-66...5-55..|
D|-1-111111111111111-0-000000000000000-|    |--------------|
PM   ...............   ............... 

Guitar 2               
e|----------------------------------------|
B|----------------------------------------|
G|---8-7-8------------7---8-7-8-5-7-7h8p7-|
D|-5-------8-10-7h8p7---5-----------------|
A|----------------------------------------|
D|----------------------------------------|

Guitar 3
e|----------------------------------------|
B|----------------------------------------|
G|-7-77777-7/10-101010101010/12/7---------|
D|----------------------------------------|
A|-5-55555-5/-8--8-8-8-8-8-8/10/5---------|
D|----------------------------------------|

Just before chorus:

Guitar 2
e|----------------------------------------|
B|----------------------------------------|
G|---------------------------7------------|
D|-5-7-8-5-7-8-5-7-8-5-7-8-5--------------|
A|----------------------------------------|
D|----------------------------------------|

[CHORUS] "I curse the day..."

Guitar 1
e|-------------------------------------------------------------------|
B|-------------------------------------------------------------------|
G|-------------------------------------------------------------------|
D|-555555555555555-3333333333333333-111111111111111-0000000000000000-|
A|-555555555555555-3333333333333333-111111111111111-0000000000000000-|
D|-555555555555555-3333333333333333-111111111111111-0000000000000000-|

Guitar 3
e|-------------------------------------------------------------------|
B|-------------------------------------------------------------------|
G|---------12121212-10101010----------15151515-14141414--------------|
D|-5555555-------------------33333333--------------------------------|
A|-5555555-10101010--8-8-8-8-33333333-13131313-12121212--------------|
D|-5555555-------------------33333333--------------------------------|
                   
e|-------------------------------------------------------------------|
B|-------------------------------------------------------------------|
G|----------12121212-10-7-10101010-12121212-10101010-15151515--------|
D|--1111111----------------------------------------------------------|
A|--1111111-10101010--8-5--8-8-8-8-10101010--8-8-8-8-13131313--------|
D|--1111111----------------------------------------------------------|

Repeat [VERSE] then [CHORUS]

[INTERLUDE]x2 "Have I not earned this..."

Guitar 1
e|-----------|
B|-----------|
G|-----------|
D|-8888-7777-|
A|-8888-7777-|
D|-8888-7777-|


Guitar 2
e|-8-88------|
B|-----------|
G|-----------|
D|-----------|
A|-----------|
D|-----------|

Guitar 1 (Hammering)
e|---------------------------|
B|---------------------------|
G|---------------------------|
D|-------------------------0-|
A|-------------------------0-|
D|-5h7h8-5h7h8-5h7h8-5h7h8-0-|

e|-----------|
B|-----------|
G|-----------|
D|-8888-7777-|
A|-8888-7777-|
D|-8888-7777-|

Guitar 2
e|-10-1010---|
B|-----------|
G|-----------|
D|-----------|
A|-----------|
D|-----------|

Guitar 1
e|------------------|
B|------------------|
G|------------------|
D|----------------0-|
A|----------------0-|
D|-5787-5787-5787-0-|
PM .... .... ....

[BRIDGE]

After the bass solo:

"Oh yeah!..."

Guitar 1
e|----------------|x8                               |----|
B|----------------|                                 |----|
G|---5/7-5--------|                                 |----|
D|-0-5/7-5-5-53-0-|   on the 8th time end with this |-3*-|
A|-0-3/5-3-5-53-0-|                                 |-3*-|
D|-0-------5-53-0-|                                 |-3*-|

Guitar 2
e|-----------|------------------|x2
B|-----------|-8-6-8-6----------|
G|---5-7—----|---------7--------|
D|-7---------|------------------|
A|-----------|------------------|
D|-----------|------------------|

e|-----------|------------------|
B|-----------|------------------|
G|---5-7—----|-----5--------5-7-|
D|-7---------|-7-7---7--5-7-----|
A|-----------|------------------|
D|-----------|------------------|

e|-----------|--------------------|
B|-8-6-8-6---|--------------------|
G|---------7-|-----5--------7-7-5~|
D|-----------|-7-7---7--5-7-------|
A|-----------|--------------------|
D|-----------|--------------------|

"Now she's good as gold!"

Guitar 1
e|---------|
B|---------|
G|-------7-|
D|-5-7-8---|
A|---------|
D|---------|

Guitar 2
e|-------------|
B|----------15-|
G|-12-14-15----|
D|-------------|
A|-------------|
D|-------------|

Repeat [CHORUS]x2

End with this:

Guitar 1
e|-----------|
B|-----------|
G|-----------|
D|-8888-7777-|
A|-8888-7777-|
D|-8888-7777-|

e|------------------|
B|------------------|
G|------------------|
D|----------------0-|
A|----------------0-|
D|-5555-8888-7777-0-|
PM .... .... ....

Updates:-

6/19/2008
[VERSE]     - Guitar 3 added.
[CHORUS]    - Guitar 3 added.
              Big thanks to Alesana6666 from YouTube.com

5/13/2008
[INTERLUDE] - The last past of Guitar 1:
              Instead of 5555-7777-8888,
              I should be like this 5787-5787-5787.
              Thanks shadowsv3nom.

2/21/2008
[INTRO]     - Playing it with pull-offs is better.

[VERSE]     - Just realized I miss tab the verse for 5-7-9.
              It was suppose to be 5-7-8.
              Thanks JaderoxAFI.
            - Slight changes on the 2nd part for Guitar 2.

[CHORUS]    - Still figuring out Guitar 2.

[INTERLUDE] - Hammering sounds better than pull-offs
              in this part.
            - Guitar 2 added.
            - The 2nd part is '10(Ten) not 1(one) and 0(zero).
Komentari
Još nema komentara