Alesana

Alchemy Sounded Good At The Time

by: anakonda

Pronađi akord!

Ne znaš kako odsvirati neki od akorda pjesmi Alchemy Sounded Good At The Time? Upiši akord u tražilicu i saznaj!

Traženi akord će se prikazati ovdje

Od istog izvođača

Pregledano 1022 puta
Pregledano 829 puta
Pregledano 1003 puta
Pregledano 863 puta
Pregledano 1039 puta
Trebaš ritam za ovu pjesmu? Pronađi ga ovdje
Akordi/Tabovi:
Drop D
INTRO:
guitar1:[tremolo picking]
|-------------------------------------------------------|
|-18-18-18-18-18-18-19-19-19-19-19-19-17-17-17-17-17-17-|
|-------------------------------------------------------|
|-------------------------------------------------------|
|-------------------------------------------------------|
|-------------------------------------------------------|

|-------------------------------------------------------|
|-18-18-18-18-18-18-19-19-19-19-19-19-17-17-17-17-17-17-|
|-------------------------------------------------------|
|-------------------------------------------------------|
|-------------------------------------------------------|
|-------------------------------------------------------|
|-------------------------------------------------------|
|-18-18-18-18-18-18-19-19-19-19-19-19-17-17-17-17-17-17-|
|-------------------------------------------------------|
|-------------------------------------------------------|
|-------------------------------------------------------|
|-------------------------------------------------------|
|-------------------------------------------------------|
|-18-18-18-18-18-18-19-19-19-19-19-19-17-17-17-17-17-17-|
|-------------------------------------------------------|
|-------------------------------------------------------|
|-------------------------------------------------------|
|-------------------------------------------------------|

|-------------|
|-------------|
|-------------|
|-13-13-13-13-|
|-13-13-13-13-|
|-13-13-13-13-|

then:
|-----------------------------------------------------------------|
|-----------------------------------------------------------------|
|-----------------------------------------------------------------|
|----3-4---1-3---3-4---1-3---1-3---3-4---1-3---3-4---1-3----3-4---|
|--0-----0-----0-----0-----0-----0-----0-----0-----0-----0--------|
|-----------------------------------------------------------------|
                                                                     
|------------------------------------------------------------------|
|------------------------------------------------------------------|
|------------------------------------------------------------------|
|----1-3-----1---1-3-----1-----1----1-3-----1---1-3-----1----3-4---|
|--0-----0-4---0-----0-4---0-4----0-----0-4---0-----0-4---0--------|
|------------------------------------------------------------------|

|-----------------------------------------------------------------|
|-----------------------------------------------------------------|
|-----------------------------------------------------------------|
|----3-4---1-3---3-4---1-3---1-3---3-4---1-3---3-4---1-3----3-4---|
|--0-----0-----0-----0-----0-----0-----0-----0-----0-----0--------|
|-----------------------------------------------------------------|
                                                                     
|------------------------------------------------------------------|
|------------------------------------------------------------------|
|------------------------------------------------------------------|
|----1-3-----1---1-3-----1-----1----1-3-----1---1-3-----1----3-4---|
|--0-----0-4---0-----0-4---0-4----0-----0-4---0-----0-4---0--------|
|------------------------------------------------------------------|

then verse:

|-----------------------------------------------------------------|
|-----------------------------------------------------------------|
|-----------------------------------------------------------------|
|----3-4---1-3---3-4---1-3---1-3---3-4---1-3---3-4---1-3----3-4---|
|--0-----0-----0-----0-----0-----0-----0-----0-----0-----0--------|
|-----------------------------------------------------------------|
                                                                     
|------------------------------------------------------------------|
|------------------------------------------------------------------|
|------------------------------------------------------------------|
|----1-3-----1---1-3-----1-----1----1-3-----1---1-3-----1----3-4---|
|--0-----0-4---0-----0-4---0-4----0-----0-4---0-----0-4---0--------|
|------------------------------------------------------------------|

|-----------------------------------------------------|
|-----------------------------------------------------|
|-----------------------------------------------------|
|----3-4---1-3---3-4---1-3---1-3-----3-4---1-3---3-4--|
|--0-----0-----0-----0-----0-------0-----0-----0------|
|-----------------------------------------------------|

then:
|--6----9--6------6-----9---6----------------------|
|----4--------4------4-----------------------------|
|--------------------------------------------------|
|---------------------------------13131313131313---| 
|---------------------------------13131313131313---|
|---------------------------------13131313131313---|
                                  . . . . . . .

|--6----9--6------6-----9---6----------------------|
|----4--------4------4-----------------------------|
|--------------------------------------------------|
|---------------------------------13131313131313---| 
|---------------------------------13131313131313---|
|---------------------------------13131313131313---|
                                  . . . . . . .

chorus:
guitar2:
|----------------------------|
|----------------------------|
|----------------------------|
|-131313131313-151515151515--| x2
|-131313131313-151515151515--|
|-131313131313-151515151515--|

guitar1:[plays a while after guitar2...]
|-1-2-1-------1-----4-2-1--|
|-------4-2-----4-2--------|
|-----------3--------------|
|--------------------------|
|--------------------------|
|--------------------------|

post-chorus riff:
|-------------------------------------------------------------|
|-------14-------14----------9-------14-------14--------------|
|-10-11----10-11----11-10-11---10-11----10-11----14-14-12-11--|
|-------------------------------------------------------------|
|-------------------------------------------------------------|
|-------------------------------------------------------------|

intro again...
guitar1:[tremolo]
|-------------------------------------------------------|
|-18-18-18-18-18-18-19-19-19-19-19-19-17-17-17-17-17-17-|
|-------------------------------------------------------|
|-------------------------------------------------------|
|-------------------------------------------------------|
|-------------------------------------------------------|

|-------------------------------------------------------|
|-18-18-18-18-18-18-19-19-19-19-19-19-17-17-17-17-17-17-|
|-------------------------------------------------------|
|-------------------------------------------------------|
|-------------------------------------------------------|
|-------------------------------------------------------|
|-------------------------------------------------------|
|-18-18-18-18-18-18-19-19-19-19-19-19-17-17-17-17-17-17-|
|-------------------------------------------------------|
|-------------------------------------------------------|
|-------------------------------------------------------|
|-------------------------------------------------------|
|-------------------------------------------------------|
|-18-18-18-18-18-18-19-19-19-19-19-19-17-17-17-17-17-17-|
|-------------------------------------------------------|
|-------------------------------------------------------|
|-------------------------------------------------------|
|-------------------------------------------------------|

guitar2:
|-------------|
|-------------|
|-------------|
|-13-13-13-13-|
|-13-13-13-13-|
|-13-13-13-13-|

pre-verse:
|-----------------------------------|
|-----------------------------------|
|-----------------------------------|
|----3-4---1-3---3-4---1-3---1-3----|
|--0-----0-----0-----0-----0--------|
|-----------------------------------|

verse:
|------------------------------------------------------------------|
|------------------------------------------------------------------|
|------------------------------------------------------------------|
|----1-3-----1---1-3-----1-----1----1-3-----1---1-3-----1----3-4---|
|--0-----0-4---0-----0-4---0-4----0-----0-4---0-----0-4---0--------|
|------------------------------------------------------------------|

|-----------------------------------------------------------------|
|-----------------------------------------------------------------|
|-----------------------------------------------------------------|
|----3-4---1-3---3-4---1-3---1-3---3-4---1-3---3-4---1-3----3-4---|
|--0-----0-----0-----0-----0-----0-----0-----0-----0-----0--------|
|-----------------------------------------------------------------|

|------------------------------------------------------------------|
|------------------------------------------------------------------|
|------------------------------------------------------------------|
|----1-3-----1---1-3-----1-----1----1-3-----1---1-3-----1----3-4---|
|--0-----0-4---0-----0-4---0-4----0-----0-4---0-----0-4---0--------|
|------------------------------------------------------------------|
then:
|----------------------------------------------------------|
|----------------------------------------------------------|
|----------------------------------------------------------|
|----3-4---1-3---3-4---1-3---1-3-----3-4---1-3---3-4-------|
|--0-----0-----0-----0-----0-------0-----0-----0-----------|
|----------------------------------------------------------|

then:
|---------------------------------6-----13--6-5--3-5-3-6---|
|--4---4---7-4---4--4---4---7-4-5--------------------------|
|----4---4-----4------4---4--------------------------------|
|----------------------------------------------------------|
|----------------------------------------------------------|
|----------------------------------------------------------|
   . . . .   . . .  . . . .   . .
|---------------------------------6-----13--6-5--3-5-3-6---|
|--4---4---7-4---4--4---4---7-4-5--------------------------|
|----4---4-----4------4---4--------------------------------|
|----------------------------------------------------------|
|----------------------------------------------------------|
|----------------------------------------------------------|
   . . . .   . . .  . . . .   . .

chorus again...

bridge:
|-------------------------|
|-------------------------|
|-------------------------|
|-13~--13~--13~---13--13--|
|-13~--13~--13~---13--13--|
|-13~--13~--13~---13--13--|

guitar1:
|--4-6-7-6-------------7-6-7-6-7-6-7---------------|
|--------------------------------------------------|
|--------------------------------------------------|
|----------|         |---------------|          |--|
|----------| guitar2 |---------------| guitar2  |--|
|----------|         |---------------|          |--|

guitar2:[plays after guitar1 alternately...]
|--------------------------------------------------|
|--------------------------------------------------|
|--------------------------------------------------|
|-----------13131313-------------------13131313----|
|-----------13131313-------------------13131313----|
|-----------13131313-------------------13131313----|
then:
guitar1:
|-4-6-7-6-9-7-6-7------------7-6-7-6-7-6-7---------------|
|--------------------------------------------------------|
|--------------------------------------------------------|
|----------------|         |---------------|          |--|
|----------------| guitar2 |---------------| guitar2  |--|
|----------------|         |---------------|          |--|

guitar2:
|--------------------------------------------------|
|--------------------------------------------------|
|--------------------------------------------------|
|-----------13131313-------------------13131313----|
|-----------13131313-------------------13131313----|
|-----------13131313-------------------13131313----|
then:
guitar1:
|--4-6-7-6-------------7-6-7-6-7-6-7---------------|
|--------------------------------------------------|
|--------------------------------------------------|
|----------|         |---------------|          |--|
|----------| guitar2 |---------------| guitar2  |--|
|----------|         |---------------|          |--|

guitar2:
|--------------------------------------------------|
|--------------------------------------------------|
|--------------------------------------------------|
|-----------13131313-------------------13131313----|
|-----------13131313-------------------13131313----|
|-----------13131313-------------------13131313----|

then:
|-4-6-7-6-9-7-6-7------------|
|----------------------------|
|----------------------------|
|------------------13~--13~--|
|------------------13~--13~--|
|------------------13~--13~--|

chorus:
guitar2:
|----------------------------|
|----------------------------|
|----------------------------|
|-131313131313-151515151515--| x2
|-131313131313-151515151515--|
|-131313131313-151515151515--|

guitar1:
|-1-2-1-------1-----4-2-1--|
|-------4-2-----4-2--------|
|-----------3--------------|
|--------------------------|
|--------------------------|
|--------------------------|

end on:
|-------|
|-------|
|-------|
|--13~--|
|--13~--|
|--13~--|
^^
Komentari
Još nema komentara