AFI

On The Arrow

by: anakonda

Pronađi akord!

Ne znaš kako odsvirati neki od akorda pjesmi On The Arrow? Upiši akord u tražilicu i saznaj!

Traženi akord će se prikazati ovdje

Od istog izvođača

Pregledano 1050 puta
Pregledano 1058 puta
Pregledano 1011 puta
Pregledano 940 puta
Pregledano 1059 puta
Trebaš ritam za ovu pjesmu? Pronađi ga ovdje
Akordi/Tabovi:
Intro
eb|---0---0---0---0---|
Bb|---0---1---3---3---|
Gb|---0---0---0---2---|
Db|---2---2---0---0---| X2
Ab|---2---3---2---0---|
Eb|---0---x---3---2---|


Verse
eb|---0---0---0---0---|         |---0---x---x------|
Bb|---0---1---3---3---|         |---0---x---x------|
Gb|---0---0---0---2---|         |---0---0---0------|
Db|---2---2---0---0---| X3 Then: |---2---4---4-----|
Ab|---2---3---2---0---|         |---3---5---5------|
Eb|---0---x---3---2---|         |---x---x---7------|


Second Verse
eb|---0---0---0---0---|         |---0---x---x---x------|
Bb|---0---1---3---3---|         |---0---x---x---x------|
Gb|---0---0---0---2---|         |---0---0---0---0------|
Db|---2---2---0---0---| X3 Then: |---2---4---4---4-----|
Ab|---2---3---2---0---|         |---3---5---5---5------|
Eb|---0---x---3---2---|         |---x---x---7---7------|


Chorus (Same chords, slightly different rhythm).
eb|---0---0---0---0---|
Bb|---0---1---3---3---|
Gb|---0---0---0---2---|
Db|---2---2---0---0---| X2
Ab|---2---3---2---0---|
Eb|---0---x---3---2---|


Post Chorus
eb|---0---7--------3---3-------3-----------5---|
Bb|---0------------5-----5-----3---3-------7---|
Gb|---0-----9------5-------5---4-----4-----7---|
Db|---2-------10---5-----------5-------5---7---|
Ab|---2------------3-----------5-----------5---|
Eb|---0------------x-----------3-----------x---|


Second Verse
eb|---0---0---0---0---|         |---0---x---x---x------|
Bb|---0---1---3---3---|         |---0---x---x---x------|
Gb|---0---0---0---2---|         |---0---0---0---0------|
Db|---2---2---0---0---| X3 Then: |---2---4---4---4-----|
Ab|---2---3---2---0---|         |---3---5---5---5------|
Eb|---0---x---3---2---|         |---x---x---7---7------|


Chorus
eb|---0---0---0---0---|
Bb|---0---1---3---3---|
Gb|---0---0---0---2---|
Db|---2---2---0---0---| X4
Ab|---2---3---2---0---|
Eb|---0---x---3---2---|

Outro (Same strumming as verses).
eb|---0---0---0---0---|
Bb|---0---1---3---3---|
Gb|---0---0---0---2---|
Db|---2---2---0---0---| X4
Ab|---2---3---2---0---|
Eb|---0---x---3---2---|

(Lead notes played during the outro)
eb|----------------|
Bb|---12-----------|
Gb|-------14--12---|
Db|----------------|
Ab|----------------|
Eb|----------------|
Komentari
Još nema komentara