AFI

Kiss And Control

by: anakonda

Pronađi akord!

Ne znaš kako odsvirati neki od akorda pjesmi Kiss And Control? Upiši akord u tražilicu i saznaj!

Traženi akord će se prikazati ovdje

Od istog izvođača

Pregledano 960 puta
Pregledano 1249 puta
Pregledano 956 puta
Pregledano 969 puta
Pregledano 924 puta
Trebaš ritam za ovu pjesmu? Pronađi ga ovdje
Akordi/Tabovi:
(m)= palm mute
(*)= remove palm mute
/= slide up
\= slide down
h= hammer
p= pull off
<>= natural harmonics

(1st Verse)
|--------------------------2---|---0----------------------2---|
|---0------0--------0---------3|----0-----0--------0---------3|
|----0--------0------0---------|-------------0------0---------|
|2----------------------0------|2----------------------0/2----|
|-------3--------2-------------|-------3--------2-------------|
|------------------------------|------------------------------|
“Watch the stars    turn you to nothing.”

|---3------3--------5------2---|---2-3----3--------5------------|
|----0--------0------0--------3|-------------0------0-----------|
|------------------------------|--------------------------------|
|2----------------------0------|2--------------------4/5\4/5\4/5|
|-------3--------2-------------|-------3--------2----2/3\2/3\2/3|
|------------------------------|--------------------------------|
“Now blush and smile    as they whisk you away.”

|---7------3--------2-3----2---|---2-3-----3--------2-3----2---|
|----8--------0---------------3|--------------0---------------3|
|------------------------------|-------------------------------|
|-----------------------0------|2-----------------------0------|
|7------3--------2-------------|--------3--------2-------------|
|------------------------------|-------------------------------|
“Part your lips a bit more. I’ll swallow your fear. I will show you how”

|-----7/8----------------------|-------------------------------|
|-------------------0-0--------|-------------------------------|
|---------7h9-7----------------|---4-4-4---4-4-4---2-2-2-2-2---|
|7/9------------0-0-----0--4--0|---4-4-4---4-4-4---2-2-2-2-2---|
|5/7---------------------------|---2-2-2---2-2-2---0-0-0-0-0---|
|------------------------------|-------------------------------|
“all the bite marks impress a need to be here,     a need to see”

(1st chorus)
|---0-----0-------------------------|
|----0-----0------------------------|
|--0-----0---------------5-5-5-5-5-5|
|2-----4-----5-5-5-5-5-5-5-5-5-5-5-5|
|2-----5-----5-5-5-5-5-5-3-3-3-3-3-3|
|0-----2-----3-3-3-3-3-3------------|
“city lights, like rain dance and ex-”

|-----------------------------------------------|
|--------------------------------0-0-0-0-0-0-0-0|
|7-7-7-7-7-7-7-7-7-7-7-7---------4-4-4-4-4-4-4-4|
|7-7-7-7-7-7-7-7-7-7-7-7-2-2-2-2-2-2-2-2-2-2-2-2|
|5-5-5-5-5-5-5-5-5-5-5-5-2-2-2-2-2-2-2-2-2-2-2-2|
|------------------------0-0-0-0-0-0-0-0-0-0-0-0|
“plode,                  fall upon debutantes”

|---0-----0-------------------------|
|----0-----0------------------------|
|--0-----0---------------5-5-5-5-5-5|
|2-----4-----5-5-5-5-5-5-5-5-5-5-5-5|
|2-----5-----5-5-5-5-5-5-3-3-3-3-3-3|
|0-----2-----3-3-3-3-3-3------------|
“reeling from nights that kiss and con-“

|--------------------------------------------|
|--------------------------------------------|
|11-11--9-9--7-7-7-7-7-7--9--11-12--9--11--12|
|11-11--9-9--5-5-5-5-5-5--X---X--X--X---X---X|
|-9--9--7-7--5-5-5-5-5-5--7---9-10--7---9--10|
|-------------------------0---0--0--0---0---0|
“trol              all of our broken hearts.”

(1st fill)
|---------------------------<12>--------|
|--------------------------------<7>----|
|16----------------------------------<5>|
|-X-------------------------------------|
|14-------------------------------------|
|-0-------------------------------------|

(1 measure break)

(2nd Verse)
|-----------------------------------------------------|
|-----------------------------------------------------|
|-----------------------------------------------------|
|9-9-9-9-9-9-------------------------------7-7-7-7-9-9|
|7-7-7-7-7-7-10-10-10-10-10-10-9-9-9-9-9-9-5-5-5-5-6-6|
|-------------8--8--8--8--8--8-7-7-7-7-7-7------------|
(m)                                               (*)
“Velvet burns                wrists while restraining.”

(This measure a second guitar is included)

(guitar 1)
|-----------------------------------------------------------|
|-----------------------------------------------------------|
|-----------------------------------------------------------|
|9-9-9-9-9-9-10-10-10-10-10-10-9-9-9-9----------------------|
|7-7-7-7-7-7--7--7--7--7--7--7-7-7-7-7----------------------|
|-----------------------------------------------------------|
(m)     (*)  (m)         (*)  (m)

(guitar 2)
|-----------------------------------------------------------|
|--------------------------------------13--13p12-13p12-13p12|
|-----------------------------------------------------------|
|-----------------------------------------------------------|
|-----------------------------------------------------------|
|-----------------------------------------------------------|

(guitar 1)
|-----------------------------------------------------|
|-----------------------------------------------------|
|-----------------------------------------------------|
|9-9-9-9-9-9-------------------------------7-7-7-7-7-7|
|7-7-7-7-7-7-10-10-10-10-10-10-9-9-9-9-9-9-5-5-5-5-5-5|
|-------------8--8--8--8--8--8-7-7-7-7-7-7------------|
(m)
“You blushed and smiled   and you said you would stay.”

(guitar 2)
|----------------------------------14-14-14------19-19-19-19|
|-----------------------------------------------------------|
|11--11-12-12---11---12-12-12-------------------------------|
|------------------------------12------------12-------------|
|-----------------------------------------------------------|
|-----------------------------------------------------------|

(guitar 1)
|--------------------------------------------------------|
|--------------------------------------------------------|
|-----------------------------------------------------9-9|
|9-9-9-9-9-9-10-10-10-10-10-10-9-9-9-9-9-9------------9-9|
|7-7-7-7-7-7--7--7--7--7--7--7-7-7-7-7-7-7------------7-7|
|--------------------------------------------------------|
(m)      (*)

(guitar 2)
|----------------------------------14-14-14--------------|
|------------------------------------------------17------|
|11--11-12-12---11---12-12-12----------------------------|
|------------------------------12------------14----------|
|--------------------------------------------------------|
|--------------------------------------------------------|

(guitar 2 leaves)

|-----0---------0---------0---------0--|
|-------0---------0---------0---------0|
|---0---------0---------0---------0----|
|9-----------------------------7-------|
|7--------10---------9---------5-------|
|----------8---------7-----------------|
“One more time steal my breath, I’ll feed you the”

|-----------------------------------------------|
|-----------------------------------------------|
|12-12--12-12------------14-14--14-14-----------|
|-X--X---X--X-10--10--10--X--X---X--X-12--12--12|
|10-10--10-10-10--10--10-12-12--12-12-12--12--12|
|--------------8---8---8--------------10--10--10|
“sky.             I will show you how.”

|-----0---------0---------0---------0--|
|-------0---------0---------0---------0|
|---0---------0---------0---------0----|
|9-----------------------------7-------|
|7--------10---------9---------5-------|
|----------8---------7-----------------|
“Steal the glamour from death and before

|------------------------------------------------|
|------------------------------------------------|
|4-4-4-4-4-4-4-4-4-4-4-4------------2-2-2-2------|
|4-4-4-4-4-4-4-4-4-4-4-4------------2-2-2-2------|
|2-2-2-2-2-2-2-2-2-2-2-2------------0-0-0-0------|
|------------------------------------------------|
“you die,                      Oh, you should see”

(2nd chorus)
|---0-----0-------------------------|
|----0-----0------------------------|
|--0-----0---------------5-5-5-5-5-5|
|2-----4-----5-5-5-5-5-5-5-5-5-5-5-5|
|2-----5-----5-5-5-5-5-5-3-3-3-3-3-3|
|0-----2-----3-3-3-3-3-3------------|
“city lights, like rain dance and ex-”

|-----------------------------------------------|
|----------------------------0-0-0-0-0-0-0-0-0-0|
|7-7-7-7-7-7-7-7-7-7-7-7-----4-4-4-4-4-4-4-4-4-4|
|7-7-7-7-7-7-7-7-7-7-7-7-2-2-2-2-2-2-2-2-2-2-2-2|
|5-5-5-5-5-5-5-5-5-5-5-5-2-2-2-2-2-2-2-2-2-2-2-2|
|------------------------0-0-0-0-0-0-0-0-0-0-0-0|
“plode,                  fall upon debutantes”

|---0-----0-------------------------|
|----0-----0------------------------|
|--0-----0---------------5-5-5-5-5-5|
|2-----4-----5-5-5-5-5-5-5-5-5-5-5-5|
|2-----5-----5-5-5-5-5-5-3-3-3-3-3-3|
|0-----2-----3-3-3-3-3-3------------|
“reeling from nights that kiss and con-“

|---------------------------------------------|
|---------------------------------------------|
|11-11--11-9--7-7-7-7-7-7--9--11-12--9--11--12|
|11-11--11-9--5-5-5-5-5-5--X---X--X--X---X---X|
|-9--9---9-7--5-5-5-5-5-5--7---9-10--7---9--10|
|--------------------------0---0--0--0---0---0|
“trol              all of our broken hearts.”

(fill 2)
|-------------------------------------------|
|-------------------------------------------|
|5--5-5-5-5-5--5-5-5-5-7--7-7-7-7-7--7-7-7-7|
|5--5-5-5-5-5--5-5-5-5-7--7-7-7-7-7--7-7-7-7|
|3--3-3-3-3-3--3-3-3-3-5--5-5-5-5-5--5-5-5-5|
|-------------------------------------------|
“All           our        hearts.”

|-----------------------------------|
|-------0---------------------------|
|6/7----------4--4-4-4-4--5--5-5-5-5|
|4/5----------4--4-4-4-4--5--5-5-5-5|
|-----3-------2--2-2-2-2--3--3-3-3-3|
|-----------------------------------|
“All           our        hearts.”

(This measure a second guitar is included)

(bridge)(guitar 1)
|-----------------0h1-0---------|--------------------------------------|
|0------0h1--0------------------|0------0h1--0-------------------------|
|--------------------------0-0-0|--------------------------------------|
|-------------------------------|--------------------------------------|
|-------------------------------|--------------------------------------|
|-------------------------------|--------------------------------------|

(guitar 2)
|-------------------------------|--------------------------------------|
|-------------------------------|--------------------------------------|
|-------------------------------|---------------9-9-9-9-9-9-8-8-8-8-8-8|
|---0------0-0------------------|---0------0-0--X-X-X-X-X-X-X-X-X-X-X-X|
|----2--2/4---------------------|----2--2/4-----7-7-7-7-7-7-6-6-6-6-6-6|
|-------------------------------|---------------0-0-0-0-0-0-0-0-0-0-0-0|

(guitar 1)
|-----------------0h1-0---------|--------------------------------------|
|0------0h1--0------------------|0------0h1--0--8---8---8---7---7---7--|
|--------------------------0-0-0|--------------------------------------|
|-------------------------------|--------------------------------------|
|-------------------------------|--------------------------------------|
|-------------------------------|--------------------------------------|

(guitar 2)
|-------------------------------|--------------------------------------|
|-------------------------------|--------------------------------------|
|-------------------------------|---------------9-9-9-9-9-9-8-8-8-8-8-8|
|---0------0-0------------------|---0------0-0--X-X-X-X-X-X-X-X-X-X-X-X|
|----2--2/4---------------------|----2--2/4-----7-7-7-7-7-7-6-6-6-6-6-6|
|-------------------------------|---------------0-0-0-0-0-0-0-0-0-0-0-0|

(guitar 1)
|7-----7-----7-----5-----5-----5-----8-----8-----8-----7-----5----------|
|------------------------------------------------------------------8----|
|-----------------------------------------------------------------------|
|-----------------------------------------------------------------------|
|-----------------------------------------------------------------------|
|-----------------------------------------------------------------------|

(guitar 2)
|-----------------------------------------------------------------------|
|-----------------------------------------------------------------------|
|12-12-12-12-12-12-11-11-11-11-11-11-14-14-14-14-14-14-12-12-12-12-12-12|
|-X--X--X--X--X--X--X--X--X--X--X--X--X--X--X--X--X--X--X--X--X--X--X--X|
|10-10-10-10-10-10--9--9--9--9--9--9-12-12-12-12-12-12-10-10-10-10-10-10|
|-0--0--0--0--0--0--0--0--0--0--0--0--0--0--0--0--0--0--0--0--0--0--0--0|

(guitar 1)
|------------------------7-----7-----7-----5-----|
|7-----------------------------------------------|
|------8-----8-----8-----------------------------|
|------------------------------------------------|
|------------------------------------------------|
|------------------------------------------------|

(guitar 2)
|------------------------------------------------|
|------------------------------------------------|
|------------------------------------------------|
|------------------------9h10-9h10-9h10----------|
|9-9-9-9-9-9-9-9-9-9-9-9-------------------------|
|7-7-7-7-7-7-7-7-7-7-7-7-------------------------|
(m)       (*)

(interlude)
(guitar 1)
|------------------------------------------------------|
|8-----------------------------------------------------|
|------------------------------------------------------|
|------------------------------------------------------|
|------------------------------------------------------|
|------------------------------------------------------|
“‘We all want to die like movie stars,’ you said as you jumped from the height of our
room floor while above us, glowing, exploding, our dreams”

(guitar 2)
|------------------------------------------------------|
|------------------------------------------------------|
|------------------------------------------------------|
|2-----------------------------------------------------|
|2-----------------------------------------------------|
|0-----------------------------------------------------|

(guitar 2 leaves)

|------------------------------------------------------|
|------------------------------------------------------|
|------------------------------------------------------|
|2-----------------------------------------------------|
|2-----------------------------------------------------|
|0-----------------------------------------------------|
“burst forth in light and death. Hold me and tell me ‘We’ll burn like stars. We’ll”

|-----------------------------------------------------|
|-----------------------------------------------------|
|7-------------------------4--------------------------|
|7-------------------------4--------------------------|
|5-------------------------2--------------------------|
|-----------------------------------------------------|
“burn as we fall. Watch as city lights dance for us.’”

(3rd chorus)
|---0-----0-------------------------|
|----0-----0------------------------|
|--0-----0---------------5-5-5-5-5-5|
|2-----4-----5-5-5-5-5-5-5-5-5-5-5-5|
|2-----5-----5-5-5-5-5-5-3-3-3-3-3-3|
|0-----2-----3-3-3-3-3-3------------|
“City lights, like rain dance and ex-”

|-----------------------------------------------|
|----------------------------0-0-0-0-0-0-0-0-0-0|
|7-7-7-7-7-7-7-7-7-7-7-7-----4-4-4-4-4-4-4-4-4-4|
|7-7-7-7-7-7-7-7-7-7-7-7-2-2-2-2-2-2-2-2-2-2-2-2|
|5-5-5-5-5-5-5-5-5-5-5-5-2-2-2-2-2-2-2-2-2-2-2-2|
|------------------------0-0-0-0-0-0-0-0-0-0-0-0|
“plode,                  fall upon the prayer of our”

|---0-----0-------------------------|
|----0-----0------------------------|
|--0-----0---------------5-5-5-5-5-5|
|2-----4-----5-5-5-5-5-5-5-5-5-5-5-5|
|2-----5-----5-5-5-5-5-5-3-3-3-3-3-3|
|0-----2-----3-3-3-3-3-3------------|
“reeling from nights that kiss and con-“
(“lives, crazy.”)

|---------------------------------------------|
|---------------------------------------------|
|11-11--11-9--7-7-7-7-7-7--9--11-12--9--11--12|
|11-11--11-9--5-5-5-5-5-5--X---X--X--X---X---X|
|-9--9---9-7--5-5-5-5-5-5--7---9-10--7---9--10|
|--------------------------0---0--0--0---0---0|
“trol                fall upon the fear of our”

(This measure a second guitar is included)

(guitar 1)
|---0-----0-------------------------|
|----0-----0------------------------|
|--0-----0---------------5-5-5-5-5-5|
|2-----4-----5-5-5-5-5-5-5-5-5-5-5-5|
|2-----5-----5-5-5-5-5-5-3-3-3-3-3-3|
|0-----2-----3-3-3-3-3-3------------|
“lives, crazy. Dance and Explode.”


(guitar 1)
|-----------------------------------------------|
|----------------------------0-0-0-0-0-0-0-0-0-0|
|7-7-7-7-7-7-7-7-7-7-7-7-----4-4-4-4-4-4-4-4-4-4|
|7-7-7-7-7-7-7-7-7-7-7-7-2-2-2-2-2-2-2-2-2-2-2-2|
|5-5-5-5-5-5-5-5-5-5-5-5-2-2-2-2-2-2-2-2-2-2-2-2|
|------------------------0-0-0-0-0-0-0-0-0-0-0-0|
“City lights burn quick, city lights.”

(guitar 1)
|---0-----0-------------------------|
|----0-----0------------------------|
|--0-----0---------------5-5-5-5-5-5|
|2-----4-----5-5-5-5-5-5-5-5-5-5-5-5|
|2-----5-----5-5-5-5-5-5-3-3-3-3-3-3|
|0-----2-----3-3-3-3-3-3------------|
“Sound crash down!     Kiss and con-”

(guitar 2)
|--------------------7--7-7-7--7--7-7-7|
|8--8-8-8--7--7-7-7--------------------|
|--------------------------------------|
|--------------------------------------|
|--------------------------------------|
|--------------------------------------|

(guitar 1)
|---------------------------------------------|
|---------------------------------------------|
|11-11--11-9--7-7-7-7-7-7--9--11-12--9--11--12|
|11-11--11-9--5-5-5-5-5-5--X---X--X--X---X---X|
|-9--9---9-7--5-5-5-5-5-5--7---9-10--7---9--10|
|--------------------------0---0--0--0---0---0|
“trol (TROL!)        all of our broken hearts.”

(guitar 2)
|------------------------------------7---7---7|
|---------------------------------------------|
|---------------------------------------------|
|---------------------------------------------|
|---------------------------------------------|
|---------------------------------------------|

(outro)

(guitar 1)
|------------------------|------------------------|------|
|------------------------|------------------------|------|
|16----------7----------9|------------7-----------|9-----|
|-X----------7----------9|10----------7-----------|9-----|
|14----------5----------7|10----------5-----------|7-----|
|-0----------------------|-8----------------------|------|

(guitar 2)
|7-----------------------|------------------------|------|
|------------------------|------------------------|------|
|------------------------|------------------------|------|
|------------------------|------------------------|------|
|------------------------|------------------------|------|
|------------------------|------------------------|------|
Komentari
Još nema komentara