AFI

Kill Caustic

by: anakonda

Pronađi akord!

Ne znaš kako odsvirati neki od akorda pjesmi Kill Caustic? Upiši akord u tražilicu i saznaj!

Traženi akord će se prikazati ovdje

Od istog izvođača

Pregledano 1227 puta
Pregledano 940 puta
Pregledano 1011 puta
Pregledano 921 puta
Pregledano 990 puta
Trebaš ritam za ovu pjesmu? Pronađi ga ovdje
Akordi/Tabovi:
INTRO


D#|--6--6--6--6--6--6--6--6--6--6---|
A#|--10-10-10-10-10-10-10-10-10-10--|
F#|---------------------------------|
C#|---------------------------------| This sounds best
G#|---------------------------------|
D#|---------------------------------|

OR


D#|---------------------------------|
A#|--11-11-11-11-11-11-11-11-11-11--|
F#|--14-14-14-14-14-14-14-14-14-14--|
C#|---------------------------------| Small hands?
G#|---------------------------------| Here you go!
D#|---------------------------------|


VERSE


D#|----------------------------------------------------|
A#|----------------------------------------------------|
F#|----------------------------------------------------|
C#|-----------4--------------------4/5-----4-----------|
G#|---4-5-4---4--4-4-4-4-4-4-4-4---4/5-4---4-44—-44----|
D#|-0-2-3-2-0-2--2-2-2-2-2-2-2-2-0-2/3-2-0-2-22-022----|
    . . . . .    . . . . . . . .       . .   .. ...


D#|---------------------------------------------------0--0-0-0-|
A#|---------------------------------------------------0--0-0-0-|
F#|---------------------------------------------------0--0-0-0-|
C#|---4/5-----4--------------------4/5-----2--22--222-2--2-2-2-|
G#|---4/5-4---4-4-4-4-4-4-4-4-4----4/5-4---2--22--222-2--2-2-2-|
D#|-0-2/3-2-0-2-2-2-2-2-2-2-2-2--0-2/3-2-0-0--00--000-0--0-0-0-|
    .     . .   . . . . . . . .        . .

D#|-----------------------------------------|
A#|-----------------------------------------|
F#|---------------------------66----4-------|
C#|-4-44444444-------------4-----77---6~----|
G#|-4-------------4-5—4----4----------------|
D#|-2-----------0-2-3-2-0--2----------------|
                . . . . .

D#|------------------------------------------0--0-0-0----|
A#|------------------------------------------0--0-0-0----|
F#|------------------------------------------0--0-0-0----|
C#|------------4----------4/5-----2--22--222-2--2-2-2----|
G#|---4-5-4----4-44--44---4/5-4---2--22--222-2--2-2-2----|
D#|-0-2-3-2-0--2-22-022-0-2/3-2-0-0--00--000-0--0-0-0----|
    . . . . .    .. ... .     . .


PRE-CHORUS

D#|---------------------------------------------------------|
A#|---------------------------------------------------------|
F#|-----11 11-11-11-11-11/-6-66-666-8-88-888-10-1010-101010-|
C#|-4~---x--x--x--x--x--x--x-xx-xxx-x-xx-xxx--x--x-x--x-x-x-|
G#|------9--9--9--9--9—-9/-4-44-444-6-66-666--8--8-8--8-8-8-|
D#|---------------------------------------------------------|


D#|-------------|
A#|--9--9-10----|
F#|--x--x--x----|
C#|--6--6--7----|
G#|-------------|
D#|-------------|


CHORUS PART 1

Now, you’ve got some choices...

Since I know people will argue over this, you
can decide how you think this sounds.

You can play these as full chords
D#|-5-5-5555555555555--000000000000--------------------------------|
A#|-5-5-5555555555555--000000000000--------------------------------|
F#|-6-6-6666666666666--111111111111--------------------------------|
C#|-7-7-7777777777777--222222222222—---(strum in this pattern------|
G#|-7-7-7777777777777--222222222222-----#of times may not be right)|
D#|-5-5-5555555555555--000000000000-12//---------------------------|

Or you can play like this depending
on how you think it sounds
D#|----------------------------------------------------------------|
A#|----------------------------------------------------------------|
F#|-6-6-6666666666666--111111111111--------------------------------|
C#|-7-7-7777777777777--222222222222—---(strum in this pattern------|
G#|-7-7-7777777777777--222222222222-----#of times may not be right)|
D#|-5-5-5555555555555--000000000000-12//---------------------------|


D#|--------------------------------------------------------|
A#|--------------------------------------------------------|
F#|-11-9----------------11-9-----14-14-14-16-16-16---------|
C#|-11-9-xx-7/9-7-4--xx-11-9-xx---x--x--x--x--x--x-xx------|
G#|--9-7-xx-7/9-7-4--xx--9-7-xx--12-12-12-14-14-14-xx------|
D#|------xx-5/7-5-2--xx------xx--------------------xx------|

CHORUS PART 2

D#|-555555555555555--------------------------------------|
A#|-555555555555555--------------------------------------|
F#|-666666666666666-13--13-13-13-13-13-14-14-14-14-14-14-|
C#|-777777777777777--x---x--x--x--x--x--x--x--x--x--x—-x-|
G#|-777777777777777-11--11-11-11-11-11-12-12-12-12-12-12-|
D#|-555555555555555--------------------------------------|

OR

D#|------------------------------------------------------|
A#|------------------------------------------------------|
F#|-666666666666666-13--13-13-13-13-13-14-14-14-14-14-14-|
C#|-777777777777777--x---x--x--x--x--x--x--x—x---x--x--x-|
G#|-777777777777777-11--11-11-11-11-11-12-12-12-12-12-12-|
D#|-555555555555555--------------------------------------|


CHORUS END

D#|---------------------------------------------|
A#|---------------------------------------------|
F#|-11-9-----------------11-9-------------------|
C#|-11-9-xx-7/9-7-x-4-xx-11-9-------------------|
G#|--9-7-xx-7/9-7-x-4-xx--9-7-------------------|
D#|------xx-5/7-5-x-2-xx------------------------|

Now, repeat the whole song so far again, until the second
chorus end, which is


2ND CHORUS END

D#|---------------------------------------------|
A#|---------------------------------------------|
F#|-11-9-----------------11-9----14-14-14-13//--|
C#|-11-9-xx-7/9-7-x-4-xx-11-9-xx--x--x--x--x----|
G#|--9-7-xx-7/9-7-x-4-xx--9-7-xx-12-12-12-11//--|
D#|------xx-5/7-5-x-2-xx------xx----------------|

BRIDGE


D#|---------------------------------3*----3*---|
A#|---------------------------------3*----3*---|
F#|---------------------------------3*----3*---|
C#|-4--------4-2-4-777-2-2-4-2-4-xx-3*-xx-3*---|
G#|-4--4-44--4-2-4-777-2-2-4-2-4-xx----xx------|
D#|-2--2-22--2-0-2-555-0-0-2-0-2-xx----xx------|
       . ..

For the part that has the 3*'s, pick behind the nut (disregard the number three). Or, if
have a les paul, pick between the stop piece and the tunematic part. Big thanks to Rich
and angerisagift03 for that info.


D#|--------------------------------------------|
A#|--------------------------------------------|
F#|--------------------------------------------|
C#|-4-2-4-777-2-2-4-2-4-777-9999---------------|
G#|-4-2-4-777-2-2-4-2-4-777-9999---------------|
D#|-2-0-2-555-0-0-2-0-2-555-7777---------------|

D#|---------------------------------------------------|
A#|---------------------------------------------------|
F#|---------------------------------------------------|
C#|4-4-4-2222-2/4-4-4-4-4-2222-2/4-4-4-4-4-2222-2/444-|
G#|---------------------------------------------------|
D#|---------------------------------------------------|
   . . . .... . . . . . . .... . .


D#|---------------------------------------------------|
A#|---------------------------------------------------|
F#|-------------------------(eleven’s)----------------|
C#|-44446666777766667777999911111111//----------------|
G#|---T---R---E---M---O---L---O-----------------------|
D#|---------------------------------------------------|


D#|------------------------3*----3*---|
A#|------------------------3*----3*---|
F#|------------------------3*----3*---|
C#|-4-2-4-777-2-2-4-2-4-xx-3*-xx-3*---|
G#|-4-2-4-777-2-2-4-2-4-xx----xx------|
D#|-2-0-2-555-0-0-2-0-2-xx----xx------|

D#|-----------------------------------|
A#|-----------------------------------|
F#|-----------------------------------|
C#|-4-2-4-777-9999-2--2--2------------|
G#|-4-2-4-777-9999-2--2--2------------|
D#|-2-0-2-555-7777-0--0--0------------|


Play the 1st bar of the chorus then:

D#|-------------------------------------------------------|
A#|-------------------------------------------------------|
F#|-11-9----------------11-9-----14-14-14-16-16-16-13-----|
C#|-11-9-xx-7/9-7-4--xx-11-9-xx---x--x--x-18-18-18--x-----|
G#|--9-7-xx-7/9-7-4--xx--9-7-xx--12-12-12-14-14-14-11-----|
D#|------xx-5/7-5-2--xx------xx---------------------------|
                               I know there’s two guitar
                                parts, but I combined
                                them

then chorus part 2 and chorus 1 end, then the intro,
then:

D#|-----------------------------------|
A#|-----------------------------------|
F#|-----------------------------------|
C#|-----------4//---------------------|
G#|---4-5-4---4//-slide-out-slowly----|
D#|-0-2-3-2-0-2//---------------------|
    . . . . .


KEY:

| /  slide up
| \  slide down
| h  hammer-on
| p  pull-off
| ~  Let Ring
| *  harmonic
| x  Mute note
Komentari
Još nema komentara