Led Zeppelin

Four Sticks

by: Page&Plant

Pronađi akord!

Ne znaš kako odsvirati neki od akorda pjesmi Four Sticks? Upiši akord u tražilicu i saznaj!

Traženi akord će se prikazati ovdje

Od istog izvođača

Pregledano 4395 puta
Pregledano 1982 puta
Pregledano 1496 puta
Pregledano 1508 puta
Pregledano 1804 puta
Trebaš ritam za ovu pjesmu? Pronađi ga ovdje
Akordi/Tabovi:
FOUR STICKS
6 5 4 3 2 1
E A D G B E

  INTRO
E|-------------|---------------------------|---------------------------|
B|-------------|---------------------------|---------------------------|
G|-------------|---------------------------|---------------------------|
D|-------------|------5b(6)----------------|------5b(6)----------------|
A|---4----5----|-7---------------4----5----|-7---------------4----5----|
E|---0----0----|-0-------0-------0----0----|-0-------0-------0----0----|

E|----------------------------|----------------------------|---------------|
B|----------------------------|----------------------------|---------------|
G|----------------------------|----------------------------|---------------|
D|-------5b(6)----------------|--------5b(6)---------------|--7---7--------|
A|--7---------------4----5----|-7----------------4----5----|--7---7--------|
E|--0-------0-------0----0----|-0---------0------0----0----|--5---5--------|

E|----------------------|------------------------|-------------------------|
B|----------------------|------------------------|-------------------------|
G|----------------------|------------------------|-------------------------|
D|-----5----------------|------------------------|------5b(6)--------------|
A|-----5----------------|--------------4----5----|-7---------------4----5--|
E|-----3----------------|--------------0----0----|-0-------0-------0----0--|

E|----------------------------||
B|----------------------------||
G|----------------------------||
D|-------5b(6)----------------||
A|--7---------------4----5----||
E|--0-------0-------0----0----||

VERSE:(guitar simile)
Oh, baby, it's crying time                               
Oh, baby, I've got to fly
Got to try to find a way
Got to try to get away
Cause you know I got to get away from you babe
Oh, baby, the river's red
Ah, baby, in my head
There's a funny feeling going on
I don't think I can hold out long

E|--------0--0--0---|--------0--0--0---|-------0--0--0---|-------0--0--0--|
B|--------0--0--0---|--------0--0--0---|-------0--0--0---|-------0--0--0--|
G|------------------|------------------|-----------------|----------------|
D|--7---------------|--5---------------|--7--------------|--9-------------|
A|------------------|------------------|-----------------|----------------|
E|--5---------------|--3---------------|--5--------------|--7-------------|
           And when the owls        cry       in     the    night,

E|---------0--0--0--|-0-----0--0--0----|-0-----0--0--0---|-0-----0--0--0--|
B|---------0--0--0--|-0-----0--0--0----|-0-----0--0--0---|-0-----0--0--0--|
G|------------------|------------------|-----------------|----------------|
D|--11--------------|------------------|-----------------|----------------|
A|------------------|------------------|-----------------|----------------|
E|--9---------------|------------------|-----------------|----------------|

E|--------0--0--0---|--------0--0--0---|-------0--0--0---|-------0--0--0--|
B|--------0--0--0---|--------0--0--0---|-------0--0--0---|-------0--0--0--|
G|------------------|------------------|-----------------|----------------|
D|--7---------------|--9---------------|--5--------------|--4-------------|
A|------------------|------------------|-----------------|----------------|
E|--5---------------|--7---------------|--3--------------|--4-------------|
                                                                       oh,
E|---------0--0--0--|-0-----0--0--0----|-0-----0--0--0---|-0-----0--0--0--|
B|---------0--0--0--|-0-----0--0--0----|-0-----0--0--0---|-0-----0--0--0--|
G|------------------|------------------|-----------------|----------------|
D|--2---------------|------------------|-----------------|----------------|
A|------------------|------------------|-----------------|----------------|
E|--0---------------|------------------|-----------------|----------------|
          ba - by,     ba - by,  when the pines     begin to cry,

E|--------0--0--0---|--------0--0--0---|-------0--0--0---|-------0--0--0--|
B|--------0--0--0---|--------0--0--0---|-------0--0--0---|-------0--0--0--|
G|------------------|------------------|-----------------|----------------|
D|--7---------------|--5---------------|--7--------------|--9-------------|
A|------------------|------------------|-----------------|----------------|
E|--5---------------|--3---------------|--5--------------|--7-------------|
                                                                        ba -
E|---------0--0--0--|-0-----0--0--0----|-0-----0--0--0---|-0-----0--0--0--|
B|---------0--0--0--|-0-----0--0--0----|-0-----0--0--0---|-0-----0--0--0--|
G|------------------|------------------|-----------------|----------------|
D|--11--------------|------------------|-----------------|----------------|
A|------------------|------------------|-----------------|----------------|
E|--9---------------|------------------|-----------------|----------------|
    by,  ba - by,    ba - by,      how   do  you  feel?

E|--------0--0--0---|--------0--0--0---|-------0--0--0---|-------0--0--0--|
B|--------0--0--0---|--------0--0--0---|-------0--0--0---|-------0--0--0--|
G|------------------|------------------|-----------------|----------------|
D|--7---------------|--9---------------|--5--------------|--4-------------|
A|------------------|------------------|-----------------|----------------|
E|--5---------------|--7---------------|--3--------------|--4-------------|
                                  If     the  riv - er   runs  dry,

E|---------0--0--0--|-0-----0--0--0----|-0-----0--0--0---|-0--------------||
B|---------0--0--0--|-0-----0--0--0----|-0-----0--0--0---|-0--------------||
G|------------------|------------------|-----------------|----------------||
D|--2---------------|------------------|-----------------|----------------||
A|------------------|------------------|-----------------|---------4---5--||
E|--0---------------|------------------|-----------------|---------0---0--||
     baby, how         would  you  feel?


VERSE:                                                                 
Craze, baby, rainbow's end
Oh, baby, it's just a den for those who hide
Who hide their love to the depths of life
And ruin dreams that we all knew so babe

And when the owls cry in the night                               
Oh, baby, when the pines begin to cry
Baby, baby, how do you feel?
If the rivers run dry, baby, how would you feel?
Ah, baby how do you feel

Gtr. 1 and Gtr. 2
E|-------------------------------------------------||
B|-------------------------------------------------||
G|---------------------------5-----7-----9-----11--||
D|--9-----7-----5-----9------3-----5-----7-----9---||
A|--7-----5-----3-----7----------------------------||
E|-------------------------------------------------||

VERSE:
Oh, brave I endure                                               
Ooh, yeah, strong shields of love
They can hold the wrath of those who walk
And the boots of those who march
Baby, through the Roads of Time so long ago
Komentari
Još nema komentara