macbeth

Bila Je Lijepa

by: godOfWar1

Pronađi akord!

Ne znaš kako odsvirati neki od akorda pjesmi Bila Je Lijepa? Upiši akord u tražilicu i saznaj!

Traženi akord će se prikazati ovdje

Od istog izvođača

Pregledano 7091 puta
Pregledano 8417 puta
Pregledano 24875 puta
Pregledano 16502 puta
Pregledano 7229 puta
Trebaš ritam za ovu pjesmu? Pronađi ga ovdje
Akordi/Tabovi:
F#m
Bila je lijepa lijepa poput obecanja
                                 A
pamtim svaki dan zabavljanja rijeci
                        E
cini mi se svake sjetim se
         D         F#m
al nema nje kraj mene

Kazu prosla je kroz mnogo toga
nasla utociste je kod Boga
trazim nocas pred tim vratima
sam ja i molim da mi je da

REF:
A                             E
Sad kad bi mogo biti s tobom kao nekada
           A              E
da mi te vrati samo jedan dan
        A                     E
da svu ljubav sto sam drugim samo tebi dam
     D           E      F#m
i da tebi samo tebi pripadam

Bila je ....
Komentari

Punker95 kaže:

supper!Baš ti hvala

12-06-2009 01:03

SLASH's Shadow kaže:

odlicna pjesma

10-07-2009 12:47

GodOfWar1 kaže:

je,pisma je super...samo rokajte :)

08-08-2009 12:32

mihajlostanisic88 kaže:

kako ide ritam za ovu pjesmu?

14-09-2011 23:31

ramaxking kaže:

d/g d/g dd gg

14-10-2012 17:20

FieryGuitar kaže:

evo tab od sola,nisam muz.obrazovan za pisanje tabova ali iskusni ce shvatiti...Sami po osjecaju dodajte v.p.h isl..pozz

e-----------------------------------------
B--------v5--3s5-3-2p3--------------
G--4s6--------------------4-2s1------
D-----------------------------------4-2-
A----------------------------------------
E-----------------------------------------

e------------5s4--------------------------------
B--------v5------v5---------v5--3s5-3-2p3-
D--4s6--------------6p4p6-------------------
A------------------------------------------------
E------------------------------------------------
nastavak prethodnog taba
e-----------------------------------------------
B----------------------------------2-----------
G---4-2s1------------v2--v1-4--2s1------
D-----------4-2--2s4----4-------------v4--
A-----------------------------------------------
E-----------------------------------------------

24-08-2013 15:03