Plavi Orkestar

Sava Tiho Tece /Intro/

by: Milan i Filip

Pronađi akord!

Ne znaš kako odsvirati neki od akorda pjesmi Sava Tiho Tece /Intro/? Upiši akord u tražilicu i saznaj!

Traženi akord će se prikazati ovdje

Od istog izvođača

Pregledano 6173 puta
Pregledano 5351 puta
Pregledano 6034 puta
Pregledano 14139 puta
Pregledano 69963 puta
Trebaš ritam za ovu pjesmu? Pronađi ga ovdje
Akordi/Tabovi:
1.Deo


E-------------0--1-----5------3----0-----5-----3-----0----------------0-----------
B----0--1--3--------------------------------------------1-3--1----3------3---1---0-G--2------------------------------------------------------------------------------
D---------------------------------------------------------------------------------
A---------------------------------------------------------------------------------
E---------------------------------------------------------------------------------



2.Deo


E-------------0--1-----5------3----0-----5-----3-----0----------------------------
B----0--1--3--------------------------------------------1-3--1----3---0-----------G--2------------------------------------------------------------------------------
D---------------------------------------------------------------------------------
A---------------------------------------------------------------------------------
E---------------------------------------------------------------------------------


                   Nastavice se................:))))


                                           

                                         By:Milan Vecerina i Filip Micic


P.S. Ostavite koment,hvala unapred
Komentari

kenank kaže:

nije lose za pocetnika kao ti

05-06-2009 15:24

Yamaha.C-70 kaže:

ovo si ti

05-06-2009 20:17

djcile kaže:

Am Dm G C Dm G C Dm F E
e|----------0-1-5_3-3_0-0--5-3-0-------------------
H|----0-1-3----------------------3-1-3-3->5-3-1-0--
G|--2----------------------------------------------
D|-------------------------------------------------
A|-------------------------------------------------
E|-------------------------------------------------

Am Dm G C Dm G C Dm F E
e|----------0-1-5_3-3_0-0--5-3-0----------
H|----0-1-3----------------------3-1-3-0--
G|--2-------------------------------------
D|----------------------------------------
A|----------------------------------------
E|----------------------------------------





ovo ti je solo kakav treba biti
100%

08-06-2009 13:40

Lorenna kaže:

slazem se s djcile..

25-10-2009 14:03

qbshade kaže:

yamaha sad si car sto si izvredjo coveka ?! On se bar potrudio da nadje :PPP

15-01-2012 17:38