Divlje Jagode

Jedina moja uvodni solo/jednostavnije

by:

Pronađi akord!

Ne znaš kako odsvirati neki od akorda pjesmi Jedina moja uvodni solo/jednostavnije? Upiši akord u tražilicu i saznaj!

Traženi akord će se prikazati ovdje

Od istog izvođača

Pregledano 3879 puta
Pregledano 4505 puta
Pregledano 56198 puta
Pregledano 6175 puta
Pregledano 2710 puta
Trebaš ritam za ovu pjesmu? Pronađi ga ovdje
Akordi/Tabovi:
E||----------1-1---------|--------------------|----------1-1---------|
B||----2--4-------4-2-4--|-------1-2-4-4-2-1-2|----2--4-------4-2-4--|
G||-3--------------------|-1-1-1--------------|-3--------------------|
D||----------------------|--------------------|----------------------|
A||----------------------|--------------------|----------------------|
E||----------------------|--------------------|----------------------|

E||-----------------------------------------------------------------------|
B||-------4-2-1-1---1-----------------------------------------------------|
G||-1-1-1---------1---3~~~------------------------------------------------|
D||-----------------------------------------------------------------------|
A||-----------------------------------------------------------------------|
E||-----------------------------------------------------------------------|

Pjesma se svira u sedmoj poziciji znaci od sedmog polja a ja cu samo napisati prstomet jer je lakse pratiti. znaci 1 - je kaziprst 2 - srednjak 3 - prstenjak 4 - mali prst jednostavno...
Nadam se da je ovo za pocetnike dovoljno dobra a za koje nije nek uce ono teze i ja sam od ovoga poceo =) uzivajte :)
Komentari

GodOfWar1 kaže:

dapače,to nije jednostavnije toe kompliciranjije ako će mo tako..ti tu sviraš na tri žice..ja znam,početnički da se na dvi svira prva E i H..

Akordi/Tabovi:
     E---3---5--7-7-3-5-----2-3--5-5--2-3---3-2---------
     H--5----------------3------------------------3--5--


.....i onda opet ispočetka!

eto,toe jednostavnije ako se mene pita :D

17-12-2009 03:01

angel's breath kaže:

MOzda je glupo sto ovo pitam, jel se prsti lijeve ruke stave na akorde, ili samo jedan prst na oznacenu zicu ? valjda je logicno da je po jedna zica, da se ne koriste akordi ;$

20-10-2011 18:19

angel's breath kaže:

i jos jedno pitanje, koje zice trzamo i kojim redoslijedom ?

20-10-2011 18:56