Hladno Pivo

Pjevajte nesto ljubavno(solo i intro)

by: guitar_hero

Pronađi akord!

Ne znaš kako odsvirati neki od akorda pjesmi Pjevajte nesto ljubavno(solo i intro)? Upiši akord u tražilicu i saznaj!

Traženi akord će se prikazati ovdje

Od istog izvođača

Pregledano 20659 puta
Pregledano 6372 puta
Pregledano 13319 puta
Pregledano 22275 puta
Pregledano 18307 puta
Trebaš ritam za ovu pjesmu? Pronađi ga ovdje
Akordi/Tabovi:
e--------------------------------------------------|
h--------------------------------------------------|
g------------4-------------------------------------|
d---4-5-7-7----7-5-4-4--7-5-4------5-4-------------|
a-5---------------------------7-7------7-5-4-------|
e--------------------------------------------7-5---|

e-------------------------------------------------|
h-------------------------------------------------|
g------------4------------------------------------|
d---4-5-7-7----7-5-4-4--7-5-4------5-4------------|
a-5---------------------------7-7------7----------|
e----------------------------------------7--------|
Komentari

problem_Child kaže:

super, lagano, hvala :D

25-07-2009 18:18

Dark Stratocaster Angel kaže:

jebenica

03-08-2009 14:18

Underclass Hero kaže:

predobro

15-01-2010 14:30

G_dur kaže:

Laganica naučio za 5 min

18-02-2011 16:07