Rolling Stones

House Of The Rising Sun

by: Danijel

Pronađi akord!

Ne znaš kako odsvirati neki od akorda pjesmi House Of The Rising Sun? Upiši akord u tražilicu i saznaj!

Traženi akord će se prikazati ovdje

Od istog izvođača

Pregledano 8613 puta
Pregledano 3277 puta
Pregledano 1790 puta
Pregledano 1017 puta
Pregledano 1328 puta
Trebaš ritam za ovu pjesmu? Pronađi ga ovdje
Akordi/Tabovi:
I was looking through the Rolling Stones tabs on
MXtabs and i was suprised to say the least that
this song wasn't there!  So i quickly whipped this
together into a tab and here you have it!  This is
all my own work, so email me before you decide to
put it on a site or whatever.  Thanks!


MAIN RIFF:
----------
   Em          G           A           C
E|-------0-----------3-----------0-----------0-----|
B|-----0---0-------0---0-------2---2-------1---1---|
G|---0-----------0-----------2-----------0---------|
D|-------------------------------------------------|
A|-----------------------2-0-----------------------|
E|-0---------2-3---------------------0-0---------0-|

   Em          G           B7          B7
E|-------0-----------3-----------2-----------2-----|
B|-----0---0-------0---0-------0---0-------0---0---|
G|---0-----------0-----------2-----------2---------|
D|-2---------2-0-----------------------------------|
A|-----------------------2-2---------2-2---------2-|
E|-------------------------------------------------|

   Em          G           A           C
E|-------0-----------3-----------0-----------0-----|
B|-----0---0-------0---0-------0---0-------1---0---|
G|---0-----------0-----------0-----------0---------|
D|-2---------2-0-----------------------------------|
A|-----------------------2-0-----------------------|
E|-----------------------------------0-3---------2-|

   Em          B7            Em          Em
E|-------0-----------2-------------0-------------0-|
B|-----0---0-------0---0---------0---0---------0---|
G|---0-----------2-------2-----0-------------0-----|
D|-----------------------------------------2-------|
A|-------------2-----------2-------------2---------|
E|-0---------0---------------0---------0-----------|
Komentari
Još nema komentara