Gužva u 16-ercu

Slavuj

by: Spanic

Pronađi akord!

Ne znaš kako odsvirati neki od akorda pjesmi Slavuj? Upiši akord u tražilicu i saznaj!

Traženi akord će se prikazati ovdje

Od istog izvođača

Pregledano 3679 puta
Pregledano 6374 puta
Pregledano 3006 puta
Pregledano 5901 puta
Pregledano 1701 puta
Trebaš ritam za ovu pjesmu? Pronađi ga ovdje
Akordi/Tabovi:
Intro:
4x [ G  Am  F  C ]


Izmedju svaka dva stiha:
E||---------------||
B||--1--0---------||
G||--------2--0---||


G      Am
O kako divno pjevas
         F            C
pa to je zlatna melodija
G      Am
Ti si dragulj prirode
F            C
mocart s drveca

Tvoja me pjesma uci
da jos nisam izgubljen
Da se jos malo mucim
pa cu biti nagradjen

F
Ima nas puno znaj
Dm
samo ti pjevaj
Am           C             G
Pratit cu te sve dok ne crknem

F
Slavuj na grani zna
Dm
da nema vremena
       Am          C        G
Ja sam sada tu , i vise nikada

SOLO:
E||-------------------------|----------------3-------|----------------------|
H||--5---6--5--3--5--6--5---|--3--5----5--6-------6--|--5--3---6------------|
G||-------------------------|------------------------|----------------------|

-------------------------|-----------------------|----------------------||
--5---6--5--3--5--6--5---|--3--5------5--5--5----|--3----6--5-----------||
-------------------------|-----------------------|-------------2--------||

F
Ima nas puno znaj
Dm
samo ti pjevaj
Am           C             G
Pratit cu te sve dok ne crknem

F
Slavuj na grani zna
Dm
da nema vremena
       Am          C        G
Ja sam sada tu , i vise nikada


E||--3----3-----3-----3--|--3-----3-----3--5--3-----|--3----------------------|
H||----------5-----5-----|-----5-----5-----------5--|-------5--3--------3--3--|
G||----------------------|--------------------------|-------------5--4--------|

--------------------------|------------------------||
--3--5--3--3--------6--5--|--6--5--5----5----3--1--|| 2X
--------------5--5--------|------------------------||

E||--5--5--5--5--7----8----|-------------------5----|------------------------|
B||------------------------|--6--6--6--6--8---------|--5--6--8--6--5------6--|
G||------------------------|------------------------|------------------------|

-----------------------||
--8--6--5------6--3----|| 2X
-----------------------||


(Prvo poslusaj pjesmu pa sviraj tabove , jer ovako je komplicirano za shvatiti)
Komentari

Greda kaže:

(Prvo poslusaj pjesmu pa sviraj tabove , jer ovako je komplicirano za shvatiti)

Ma da? :D

04-01-2013 11:49