Ozzy Osbourne

Steal Away The Night

by: anakonda

Pronađi akord!

Ne znaš kako odsvirati neki od akorda pjesmi Steal Away The Night? Upiši akord u tražilicu i saznaj!

Traženi akord će se prikazati ovdje

Od istog izvođača

Pregledano 854 puta
Pregledano 1180 puta
Sin
Pregledano 889 puta
Pregledano 1157 puta
Pregledano 1108 puta
Trebaš ritam za ovu pjesmu? Pronađi ga ovdje
Akordi/Tabovi:
KEY
/-Slide
^-Bend up
X-Vibrato
P- Pull off

Intro:
1|--------------------------------------------------------------|
2|--------------------------------------------------------------|
3|-----9-----7-----9-----7-----9/----5-----3------------4-4-----|
4|-----9-----7-----9-----7-----9/----5-----3------------4-4-----|
5|------------------------------------------------4-3-4-2-2-----|
6|-0-0---7-9---9-7---7-9---9-7---3-3---3-5---3-5--2-1-2-----3-2-|


Verse:
1|----------------------------------------------------------3--|
2|--------------------------------------8--10--12--10-------3--|
3|-----9-----9-----9-----9-----7/-9-----9--11--12--11-------0--|
4|-----9-----9-----9-----9-----7/-9--0----------------------0--|
5|-------------------------------------------------------------|
6|-0-0---0-0---0-0---0-0---0-0-------------------------0-2--3--|

Verse Continued:
1|-----------------------------------------------------------10----------|
2|-----------------------------------------------------------12----12----|
3|-----------------4-4-2-2^-2-2-2--9----7----9-------7-9-----12-11-12-11-|
4|-----------------4-4-------------9----7----9-------7-9--0-----0-----0--|
5|-----3-2-0-------2-2------------------------------------------0-----0--|
6|-0-3-------3-2-0----------------0--0-0--0-0--0-0--0--------------------|

Verse end:
1|-3-----------------------------------|
2|-3-----------------------------------|
3|-0----------------------4----4-5--5-5|
4|-0----------------------4--4---------|
5|----------3-2-0---------2------------|
6|-3---0-3---------3-2-0---------------|

Chorus:
1|-----------------------------|------------------------------|
2|-----9-----------------------|-----9------------------------|
3|-----9-------------9---------|-----9-------------9----------|
4|-----9--9-0----7-9---9-7---7-|-----9--9-0----7-9---9-7------|
5|-----7--7---7------------7---|-----7--7---7------------7--0-|
6|-0-0-------------------------|-0-0--------------------------|
  |__ Repeat this 2 times^____|  then play this ^

Chorus End:
1|--------------------------------------------------------------------------
2|-12--12-12-13--13-13-14--14-14-15--15-15--16--16-16-17--17-17-18--18-18-18
3|-X---X--X--X---X--X--X---X--X--X---X--X---X---X--X--X---X--X--X---X--X--X-
4|-9---9--9--10--10-10-10--11-11-12--12-12--13--13-13-14--14-14-15--15-15-15
5|--------------------------------------------------------------------------
6|--------------------------------------------------------------------------

Interlude:
1|------------------------------------------------------------|
2|------------------------------------------------------------|
3|-4---2----4-----2-----4----2---4-----2-----4-----2----------|
4|-4---2----4-----2-----4----2---4-----2-----4-----2----------|
5|--0-0--0-0--0-0---0-0---0---0----0-0---0-0---0-0---0-0------|
6|-------------------------------------------------------19/P-0
when you get to 19, slide back and pull off making the low E open sound.

Bridge:
1|-----------3-3-----------------------------------------------------|
2|-----------3-3--15--15------------------------15-X-14-----10-10-11-|
3|-9--16-14--0-0--14--14--------9-16--14-14-12--14-X-14-----10-11-12-|
4|-9--16-14--0-0--14--14--16-16-9-16--14-14-12--14-X-14--12----------|
5|-7--14-12-------12--12--14-14-X-14--12-12-10--12-X-12--------------|
6|-0---------3-3----------------0------------------------------------|

Solo:
1|----------13^-13-10------------------------------------3------------------
2|-12-----------------13-11---13-11-11-3-4-3--6-3-6-3-----5-2-5-2--2--------
3|-12--12-0-----------------12------------------------------------3-3-3-----
4|-------------------------------------------------------------------5--5-2-
5|-----------------------------------------------------4--------------------
6|--------------------------------------------------------------------------

Solo Continued:
1|------------------------------------------------9-12-9-12-9-12-9-12-9-7---
2|-----------------------------------------8-11-8------------------------10-
3|-----------------------------------6-9-6----------------------------------
4|-5-2-2------------------------5-8-5---------------------------------------
5|----4-1-4-1-4--1---------4-7-4--------------------------------------------
6|-------------3--3-0-3-6-3-------------------------------------------------

Solo Solo End:
1|-----7-----------------------------------------7--------------------------
2|-10^--10-7-----------------------0--22^----------10-7---------------------
3|-----------10-9-7^----------9/21-0------2-2-2-8------9-7------------------
4|------------------9-8-7-7/6-----------------------------9-7---------------
5|-----------------------------------------------------------9-8-7----------
6|----------------------------------------------------------------10-9-8-7-6

Song Formation:
Intro 2X's
Verse
Chorus
Interlude
Bridge
Solo
Interlude
Intro2 X's
Komentari
Još nema komentara