Ozzy Osbourne

I Dont Wanna Stop

by: anakonda

Pronađi akord!

Ne znaš kako odsvirati neki od akorda pjesmi I Dont Wanna Stop? Upiši akord u tražilicu i saznaj!

Traženi akord će se prikazati ovdje

Od istog izvođača

Pregledano 5212 puta
Pregledano 4199 puta
Pregledano 840 puta
Pregledano 1174 puta
Pregledano 1148 puta
Trebaš ritam za ovu pjesmu? Pronađi ga ovdje
Akordi/Tabovi:
                  [ X2                                ]
D-----------------|-----------------|-----------------|
A-----------------|-----------------|-----------------|
F-----------------|--7----5---------|--/10-----7------|
C-----------------|--7----5---------|--/10-----7------|
G--3--/5----------|--5----3---------|--/8------5------|
C-----------------|-----------------|-----------------|
     
[ X2                                                                   ]
D-----------------|-----------------|-----------------|-----------------|
A-----------------|-----------------|-----------------|-----------------|
F-----------------|-----------------|-----------------|-----------------|
C-----------------|-----------------|-----------------|-----------------|
G-----------------|---------------3-|-----------------|---------------3-|
C-5-3-0-3-5-3-0-0-|-0-5-3-0-5-3-0---|-5-3-0-3-5-3-0-0-|-0-5-3-0-5-3-0---|



[ X5
D-----------------|-----------------|-----------------|-----------------|
A-----------------|-----------------|-----------------|-----------------|
F-----------------|-----------------|-----------------|-----------------|
C-0----0----0-----|----0----5--5--5-|--3---3-----3----|--3-----/6-5-3---|
G-0----0----0-----|----0----3--3--3-|------0-----0----|--0------------5-|
C-0----0----0-----|----0------------|------0-----0----|--0--------------|

                  ]
D-----------------|
A-----------------|
F-----------------|
C-----------------|
G--3--------------|
C----6-5-3--------|

                  [ X2                                ]
D-----------------|-----------------|-----------------|
A-----------------|-----------------|-----------------|
F-----------------|--7----5---------|--/10-----7------|
C-----------------|--7----5---------|--/10-----7------|
G--3--/5----------|--5----3---------|--/8------5------|
C-----------------|-----------------|-----------------|
     
[ X2                                                                   ]
D-----------------|-----------------|-----------------|-----------------|
A-----------------|-----------------|-----------------|-----------------|
F-----------------|-----------------|-----------------|-----------------|
C-----------------|-----------------|-----------------|-----------------|
G-----------------|---------------3-|-----------------|---------------3-|
C-5-3-0-3-5-3-0-0-|-0-5-3-0-5-3-0---|-5-3-0-3-5-3-0-0-|-0-5-3-0-5-3-0---|



D-----------------|-----------------|-----------------|-----------------|
A-----------------|-----------------|-----------------|-----------------|
F-----------------|-----------------|-----------------|-----------------|
C-----------------|-----------------|-----------------|-----------------|
G-----------------|-----------------|-----------------|----------5--3---|
C-3-----3--3---5--|-6---3--3--5--5--|--3---3---5--6---|--6--5--3--------|
                              ^

D-----------------|-----------------|-----------------|-----------------|
A-----------------|-----------------|-----------------|-----------------|
F-----------------|-----------------|-----------------|-----------------|
C-----------------|-----------------|-----------------|-----------------|
G-----------------|-----------------|-----------------|-----------------|
C--6--5--3--------|-----------------|-----------------|-----------------|

[ X5
D-----------------|-----------------|-----------------|-----------------|
A-----------------|-----------------|-----------------|-----------------|
F-----------------|-----------------|-----------------|-----------------|
C-0----0----0-----|----0----5--5--5-|--3---3-----3----|--3-----/6-5-3---|
G-0----0----0-----|----0----3--3--3-|------0-----0----|--0------------5-|
C-0----0----0-----|----0------------|------0-----0----|--0--------------|

                  ]
D-----------------|
A-----------------|
F-----------------|
C-----------------|
G--3--------------|
C----6-5-3--------|

[ X4                                                                  ]
D-----------------|-----------------|-----------------|-----------------|
A-----------------|-----------------|-----------------|-----------------|
F-----------------|-----------------|-----------------|-----------------|
C-----------------|-----------------|-----------------|-----------------|
G-----------------|---------------3-|-----------------|---------------3-|
C-5-3-0-3-5-3-0-0-|-0-5-3-0-5-3-0---|-5-3-0-3-5-3-0-0-|-0-5-3-0-5-3-0---|

[ X4
D-----------------|-----------------|-----------------|-----------------|
A-----------------|-----------------|-----------------|-----------------|
F-----------------|-----------------|-----------------|-----------------|
C-----------------|-----------------|-----------------|-------------/6--|
G-0-0-0-0-0-0-0-0-|-0-0-0-0-0-0-0-0-|-0-0-0-0-0-0-0-0-|-0-0-0-0-0-0-----|
C-0-0-0-0-0-0-0-0-|-0-0-0-0-0-0-0-0-|-0-0-0-0-0-0-0-0-|-0-0-0-0-0-0-----|

                  ]
D-----------------|
A-----------------|
F-----------------|
C-5--3------------|
G------5--3-------|
C-----------6-5-3-|

The next bit is very fast!
   
    ^
D--13-12-10-8-12--|-10-8------------|-----------------|-----------------|
A-----------------|------13-11-10---|-13-11-10--------|-------------10--|
F-----------------|-----------------|----------11-12--|-10----10-12-----|
C-----------------|-----------------|-----------------|----14-----------|
G-----------------|-----------------|-----------------|-----------------|
C-----------------|-----------------|-----------------|-----------------|

D-----------------|-----------------|-12-------12-13--|-15-13-12-13-12--|
A-11-10-11-13-10--|-11-13-15-13-15--|----13-15--------|-----------------|
F-----------------|-----------------|-----------------|-----------------|
C-----------------|-----------------|-----------------|-----------------|
G-----------------|-----------------|-----------------|-----------------|
C-----------------|-----------------|-----------------|-----------------|

          ^                                        ^              ^
D-13-----13-------|-----------------|-------10--------|-10-----------10-|
A-----------------|-/10-13-10-13-10-|-13-10----10-13--|----13-10--------|
F-----------------|-----------------|-----------------|----------12-----|
C----0-0----------|-----------------|-----------------|-----------------|
G-----------------|-----------------|-----------------|-----------------|
C-----------------|-----------------|-----------------|-----------------|

                    ^
D-------10--------|-----10-------10-|-----------------|-10-13-15-13-15--|
A-13-10----13-10--|--------13-10----|-13-10-15-15-15--|-----------------|
F-----------------|-12--------------|-----------------|-----------------|
C-----------------|-----------------|-----------------|-----------------|
G-----------------|-----------------|-----------------|-----------------|
C-----------------|-----------------|-----------------|-----------------|

D-13-10-13-10-----|-10-13-12-13--12-|-10-12-10----10--|----10-12-10-10--|
A-------------13--|-----------------|----------13-----|-13--------------|
F-----------------|-----------------|-----------------|-----------------|
C-----------------|-----------------|-----------------|-----------------|
G-----------------|-----------------|-----------------|-----------------|
C-----------------|-----------------|-----------------|-----------------|

      ^              ^            ^             ^         ^      ^  ^   
D-10-----10-------|-----10----------|-10--------------|-----------------|
A----13-----13-10-|--------13-10----|----13-10-12--13-|-----------------|
F-----------------|-12-----------12-|----------12-----|--12--10-16-12---|
C-----------------|-----------------|-----------------|-----------------|
G-----------------|-----------------|-----------------|-----------------|
C-----------------|-----------------|-----------------|-----------------|

      ^    ^         ^          ^            ^           ^         ^     
D-----------------|-----------------|-----------------|-----------------|
A-10-17---12--10--|-16---12-10-17---|-12-10-16-12-10--|-17--12-10-16----|
F-----------------|-----------------|-----------------|-----------------|
C-----------------|-----------------|-----------------|-----------------|
G-----------------|-----------------|-----------------|-----------------|
C-----------------|-----------------|-----------------|-----------------|

      ^  ^     ^     ^     ^  ^        ^  ^  ^
D-----------------|-----------------|-----------------|-15-13-\3/15--13-|
A-10-12-17-10-12--|-17-10-12-16-10--|-12-16-12--------|-----------------|
F-----------------|-----------------|-----------------|-----------------|
C-----------------|-----------------|-----------------|-----------------|
G-----------------|-----------------|-----------------|-----------------|
C-----------------|-----------------|-----------------|-----------------|

D-13-15-13--15-13-|-15-12-13-15-12--|-13-15-13-10-13--|-10----10--------|
A-----------------|-----------------|-----------------|----13----10-13--|
F-----------------|-----------------|-----------------|-----------------|
C-----------------|-----------------|-----------------|-----------------|
G-----------------|-----------------|-----------------|-----------------|
C-----------------|-----------------|-----------------|-----------------|

                            ^                ^
D-----------------|-----------------|-18--------------|-----------------|
A-10----10--------|--------12---\---|-18----16--------|-----------------|
F----12----12-13--|-10-----12---\---|-----------------|-----------------|
C-----------------|----12-----------|-----------------|-----------------|
G-----------------|-----------------|-----------------|-----------------|
C-----------------|-----------------|-----------------|-----------------|

[ X4                                                                  ]
D-----------------|-----------------|-----------------|-----------------|
A-----------------|-----------------|-----------------|-----------------|
F-----------------|-----------------|-----------------|-----------------|
C-----------------|-----------------|-----------------|-----------------|
G-----------------|---------------3-|-----------------|---------------3-|
C-5-3-0-3-5-3-0-0-|-0-5-3-0-5-3-0---|-5-3-0-3-5-3-0-0-|-0-5-3-0-5-3-0---|
Komentari
Još nema komentara