Ozzy Osbourne

Hellraiser

by: anakonda

Pronađi akord!

Ne znaš kako odsvirati neki od akorda pjesmi Hellraiser? Upiši akord u tražilicu i saznaj!

Traženi akord će se prikazati ovdje

Od istog izvođača

Pregledano 844 puta
Pregledano 1733 puta
Pregledano 1003 puta
Pregledano 868 puta
Pregledano 1733 puta
Trebaš ritam za ovu pjesmu? Pronađi ga ovdje
Akordi/Tabovi:
|-----------------------|------------------------
|-PH--------------------|-PH---------------------
|--5^-^(5)p3----3--3----|--5^-^(5)p3---3--3-5----
|------------5--3----5--|------------5-3--3-5----
|------------5----------|-------------------3----
|-----------------------|------------------------

CHORDS GO WITH LYRICS:

"..sometimes it feels so tough, but I still ain't had enough.
                                                      C5

"I keep saying that its getting too much...but I know i'm a liar..."
G5         C5          G5               C5    G5     C5    G5

"Feeling alright..."                  "But thats what lights my fire..."
|-----------------------------------------|------------------------6^-
|-----------------------------------------|---------------------------
|--------5----------------------3~~---5~~-|-------5-------------------
|-3---x--5----------------------3-----5---|-3---x-5--------5-5-5------
|-3---x--3--PM.................-----5-----|-3---x-3--3-3-3-3-3-3------
|-1---x-------1-1-2-2-3-3-1-2-3-----------|-1---x----------------3----

"Hellraiser.....in the thunder and heat..." 
|-----------------------------------------------------------
|--------------x-6------------------------------------------
|---------3----x-5-----5---5^-^(5)p3---3^-3-----------------
|-----5---3----x-3-----2-------------5------5---------------
|-----5---1-------------------------------------------------
|-----3----------------------------------------and so on....

INTERLUDE: all palm mutes:
|---------------------------------|---------------------------------|
|---------------------------------|---------------------------------|
|---------------------------------|---------------------------------|
|---------------------------------|---------------------------------|
|-------------------5-5-5-3-4-----|-------------------3-3-3-1-2-----|
|-3-3-4-4-5-5-3-4-5-----------5-3-|-1-1-2-2-3-3-1-2-1-----------3-5-|

|---------------------------------|------------------------------
|---------------------------------|------------------------------
|---------------------------------|---3---------3---------3------
|---------------------------------|---3----3----3----3----3----3-
|-------------------5-5-5-3-4-----|-1-1----3--1-1----3--1-1----3-
|-3-3-4-4-5-5-3-4-5-----------5-3-|------1-1-------1-1-------1-1-

SOLO:
|-----------------------------------------------------------
|-5^-----T------------T-------------------------------------
|-5^--p3-21^--^-^-p5-21--5^--p3-5~~~~~----------------------
|-----------------------------------------------------------
|-----------------------------------------------------------
|-----------------------------------------------------------

|----------------------------------------------15-18-18-15--
|----------------------------15-18----------18--------------
|----------15-17-------------------15-17-15-----------------
|----------------15-17-15-17--------------------------------
|-17-15-17--------------------------------------------------
|-----------------------------------------------------------

-------------------------------|----------------------------|
-18-15-------18-15-------------|-18^--^(18)p15-18^~~~~~-----|
-------17-15-------15-14-------|----------------------------|
-------------------------17-15-|----------------------------|
-------------------------------|----------------------------|
-------------------------------|----------------------------|

|---------------------------------------------------|
|-17^-^17----------17^-^17-----------17^-^17--------|
|-17^-^17p15-------17^-^17p15--------17^-^17p15-----|
|------------17-15-------------17-15------------17--|
|---------------------------------------------------|
|---------------------------------------------------|

|---------------------------------------------|-------------
|-------15-----------------------------18-----|-------------
|-18----------18----17----17^-^(17)p15----17^-|-------------
|----17----17----17----17---------------------|-------------
|---------------------------------------------|-------------
|---------------------------------------------|-------------

      decrease magnitude of bend.
|-20^-20^20^20^20^20^20^20^20^-20^^^(20)-18-----|-----------
|-------------------------------------------20--|-----------
|-----------------------------------------------|-----------
|-----------------------------------------------|-----------
|-----------------------------------------------|-----------
|-----------------------------------------------|-----------

|-18-15-------------------------------------------18^~~~~---|
|-------18-15-------18-15-----------------------------------|
|-------------17-15-------17-15-------17-15-----------------|
|-------------------------------17-15-------17-15-----------|
|-----------------------------------------------------------|
|-----------------------------------------------------------|

ENDING:
|----------------play 3 times|------------------------|
|----------------------------|------------------------|
|-------5-----------3--x-2---|-------5----------3--2--|
|-------5-----------3--x-3---|-------5----------3--3--|
|----------------------------|------------------------|
|-3-3-3-----3-3-3-3----------|-3-3-3-----3-3-3--------|
Komentari
Još nema komentara