Ozzy Osbourne

Fire In The Sky

by: anakonda

Pronađi akord!

Ne znaš kako odsvirati neki od akorda pjesmi Fire In The Sky? Upiši akord u tražilicu i saznaj!

Traženi akord će se prikazati ovdje

Od istog izvođača

Dee
Pregledano 1128 puta
Pregledano 1308 puta
Pregledano 2675 puta
Pregledano 1353 puta
Pregledano 1192 puta
Trebaš ritam za ovu pjesmu? Pronađi ga ovdje
Akordi/Tabovi:
Tuning: Eb Ab Db Gb Bb eb  just tune it 1/2 step down


Intro, chorus: 00:44/01:46/02:59/05:24
e|---------------------------------------------------------------|
B|---------------------------------------------------------------|
G|-----9/8--------------------9/8----------7---------7-----------|you play this 2x
D|-7/9-7/6-9/7---9-7777---7/9-7/6-7/9------5---------5-----------|at the beginning and
A|-5/7-----7/5---7-5555---5/7-----5/7----------------------------|rest of the time you
E|-----------5------------------------0-0----0--0-0----0-—0-0----|play it 4x


e|----------------------------|
B|----------------------------|
G|-----9/8--------------------|
D|-7/9-7/6-9/7~---------------|
A|-5/7-----7/5~---------------|
E|-----------5~---------------|


Sitar verse: 01:13/02:09/
e|----------0-------------0-------0---|
B|------------0-------------0---------|I am not very shore about this
G|-------4------4---------------------|just listen + effect + improvisation
D|-----7----------7------------7------|and you will get it right
A|---7--------------------------------|
E|-0-------------------0---------—----|


Ah ah ah: 00:25/02:09
e|-------------------------------------------------|this is something
B|-------------------------------------------------|like singing
G|---14-13-----------14--16--18--14-13-------------|just listen to it
D|---------14-----14-------------------14----------|and you’ll
A|-------------14----------------------------------|get it
E|-------------------------------------------------|


Pre-solo (2 guitars) part A 03:42
e|------------------------------------------------------------|
B|------------------------------------------------------------|
G|----------------7-------------------------------------------|
D|-7--------------7--------------7-------------6--------------|
A|-7--------------5--------------7-------------6--------------|
E|-5-----------------------------5-------------4--------------|
|
|
|sitar
e|-----8--7------------8--7-----------8--7-------------8------|
B|-----------10--------------10-------------10--9—-10-----9---|
G|------------------------------------------------------------|
D|------------------------------------------------------------|
A|------------------------------------------------------------|
E|------------------------------------------------------------|


Pre-solo part B 03:52
e|---------------------------------------------------------------------------|
B|---------------------------------------------------------------------------|
G|---------------------------------------------------------------------------|
D|-2------------10------10------10-----10------7------7------7------7--------|
A|-2------------8--8-8--8--8-8--8--8-8-8--8-8--5-5-5--5-5-5--5-5-5--5-5-5----|
E|-0-------------------------------------------------------------------------|
|
|
|
|sitar
e|--0--0--0--0--0--1--1--1--1--1--1--1--1--1--1--1--1--7--7--7--6—-6—-6-----|
B|---0--0--0--0--0--1--1--1--1--1--1--3--3--3--3--3--3--8--8--8--8--8--8----|
G|-2--2--2--2--2--2--2--2--2--2--2--2--2--2--2--2--2--2--9--9--9--9--9--9---|
D|--------------------------------------------------------------------------|
A|--------------------------------------------------------------------------|
E|--------------------------------------------------------------------------|

---------------------------------------------|
---------------------------------------------|
---------------------------------------------|
--9---9---9---9---9-9-9---9---9---9---9-9----|
--7-7-7-7-7-7-7-7-7-7-6-6-6-6-6-6-6-6-6-6----|
---------------------------------------------|


Pre-solo part C 04:04
e|-----------------------------------------|
B|-----------------------------------------|
G|---------------------------2-2-1---------|
D|-3-----3ph-3-----3ph-3------------2ph----|
A|---4-5-------4-5-------4-5---------------|
E|-----------------------------------------|
|
|
|
|sitar
e|---1---1---1---1---1---1---1----1---------|
B|-----3-------3-------3-------3------------|
G|-2-------2-------2-------2----------------|
D|------------------------------------------|
A|------------------------------------------|
E|------------------------------------------|


Solo  04:24
e|------------------------------------------------------------|
B|------------------------------------------------------------|
G|-14121412-------17151715-------19171917-------21192119------|
D|---------1412-----------1715-----------1917-----------2119--|
A|----X4-------------X4--------------X4-------------X4--------|
E|------------------------------------------------------------|

-15121512-------17151715-------211715-15vvvv--------|
---------1513-----------1715------------------------|
----------------------------------------------------|
---X4--------------X4------------X8-----------------|
----------------------------------------------------|
----------------------------------------------------|

under solo 04:24
e|-----------------------------------------------------------------------|
B|-----------------------------------------------------------------------|
G|-2--4-5-----4-5-----4-5-----5-4--2--4-5-----4-5-----4-5-----5-4—-7~~---|
D|-2--4-5--5--4-5--3--4-5--5--5-4--2--4-5--5--4-5--3--4-5--5--5-4—-7~~---|
A|-0--2-3--5--2-3--3--2-3--5--3-2--0--2-3--5--2-3--3--2-3--5--3-2—-5~~---|
E|---------3-------1-------3---------------3-------1-------3-------------|


Post-solo interlude (3 guitars) 04:45
e|------------------------------------------------------------------------------|
B|------------------------------------------------------------------------------|
G|-7b---------------------------------------------------------------------------|
D|--------------------------------------listen to song for timing---------------|
A|------------------------------------------------------------------------------|
E|------------------------------------------------------------------------------|
|
|
e|----1-----1-----1-----1-------3-----3-----3-----3-----------------------------|
B|-------3-----------3-------------3-----------3--------------------------------|
G|-2-----------2-------------2-----------2--------------------------------------|
D|------------------------------------------------------------------------------|
A|-------X2--------------------------X2-----------------------------------------|
E|------------------------------------------------------------------------------|
|
|
e|-------------------------------------------------------------------------------|
B|-------------------------------------------------------------------------------|
G|-------------------------------------------------------------------------------|
D|-------------------------------------------------------------------------------|
A|-----------------------------------------------------------------10-10-8-8-----|
E|-10-10-13-13-12-13---00000—-00-—00000--00--10-10-13-13-12--10-10-----------10--|
    04:58
Komentari
Još nema komentara