Ozzy Osbourne

Facing Hell

by: anakonda

Pronađi akord!

Ne znaš kako odsvirati neki od akorda pjesmi Facing Hell? Upiši akord u tražilicu i saznaj!

Traženi akord će se prikazati ovdje

Od istog izvođača

Pregledano 1732 puta
Pregledano 1096 puta
Pregledano 839 puta
Pregledano 1327 puta
Pregledano 868 puta
Trebaš ritam za ovu pjesmu? Pronađi ga ovdje
Akordi/Tabovi:
Intro (Volume Swell)
----------------------------------------------------------------|
----------------------------------------------------------------|
----------------------------------------------------------------|
-----*----------------------------------------------------------|
----(0)---------------------------------------------------------|
----(0)---------------------------------------------------------|
*=Swell into note using vol. knob

MAIN RIFF (Play Twice):
----------------------------------------------------------------------------|
----------------------------------------------------------------------------|
----------------------------------------------------------------------------|
--0-0--6-5-3-0--0-0--6-0-0----------------0-0--6-5-3-0--0-0--6-0-0-8--------|
--0-0--6-5-3-0--0-0--6-0-0---/6-6-6-6-6---0-0--6-5-3-0--0-0--6-0-0-8-----PH-|
--0-0--6-5-3-0--0-0--6-0-0--sl.-----------0-0--6-5-3-0--0-0--6-0-0-8--6--5~~|
                P.M    P.M                              P.M    P.M

PRE-VERSE (Play Twice)
||------------------------------------||
||------------------------------------||
||o----------------------------------o||
||o----------------------------------o||
||--0-0-0-0-0-0-0-0-0-0-0-0-0-0-0-0---||
||--0-0-0-0-0-0-0-0-0-0-0-0-0-0-0-0---||

VERSE RIFF (Play Twice)

"You make a promise of protection......"
||----------------------------------------------------||
||----------------------------------------------------||
||o--------------------------------------------------o||
||o-----------------------5-5-5-5--------------------o||
||--0-0-0-0----1-1-1-1----3-3-3-3--------sl.----------||
||--0-0-0-0----1-1-1-1-------------0-0-0-/6--5-3-5-3--||

PRE-CHORUS (Twice)
||--------------------------------------------------------------------------|
||--------------------------------------------------------------------------|
||o-----------------------------------------------------------------------o-|
||o-----------------------------------5-5-5-5-5-5-5-5---------------------o-|
||--0-0-0-0-0-0-0-0--1-1-1-1-1-1-1-1--3-3-3-3-3-3-3-3--0-0-0-0-0-0--*3(5)---|
||--0-0-0-0-0-0-0-0--1-1-1-1-1-1-1-1-------------------0-0-0-0-0-0----------|
      P.M---------|    P.M.--------|    P.M.--------|    P.M.---------------|    *trill

1ST CHORUS --> Play Main Riff Twice
2ND PRE-VERSE ---> Play Pre Verse Riff Twice
2ND VERSE ---> Play Verse Riff Twice
2ND CHORUS ---> Play Main Riff Twice

BRIDGE (Play 4 Times)
||---------------------------------||
||---------------------------------||
||o-------------------------------o||
||o-------------------------------o||
||---0-0-0--6--0--6--0-0-0--5--3---||
||---0-0-0--6--0--6--0-0-0--5--3---||
     P.M.-|   P.M    P.M.-|

-------------------GUITAR SOLO (SORRY, NOT TABBED)-----------------------

POST-SOLO DIVE
----------------------------------------------------------------|
----------------------------------------------------------------|
----------------------------------------------------------------|
-----*----------------------------------------------------------|
----(0)---------------------------------------------------------|
----(0)---------------------------------------------------------|
*DIVE DOWN AND BACK AGAIN FROM THIS NOTE USING EITHER HEADSTOCK BEND OR WHAMMY BAR.

3ND VERSE ---> Play Verse Riff Twice
3ND CHORUS ---> Play Main Riff Four Times w/ad lib solo

OUTRO ---> Play Bridge 5 Times w/Fill 1 twice third time, then end with fill 2.

FILL 1
------------------------|
------------------------|
------------------------|
---12--10---------------|
-----------11--10--8----|
------------------------|

FILL 2 (Ending)
---------------------------------------------------|
---------------------------------------------------|
---------------------------------------------------|
--------------------*------------------------------|
---0-0-0--6--0--6--(0)-----------------------------|
---0-0-0--6--0--6--(0)-----------------------------|
*Don't pick, let ring gently in background
Komentari
Još nema komentara