Kiss

Then She Kissed Me

by: Danijel

Pronađi akord!

Ne znaš kako odsvirati neki od akorda pjesmi Then She Kissed Me? Upiši akord u tražilicu i saznaj!

Traženi akord će se prikazati ovdje

Od istog izvođača

Pregledano 1107 puta
Pregledano 980 puta
Pregledano 931 puta
Pregledano 999 puta
Pregledano 1144 puta
Trebaš ritam za ovu pjesmu? Pronađi ga ovdje
Akordi/Tabovi:
intro

G------------
D-----3-4-3--      do this six times
A---4-------4
E-----------


first verse

G----------------------------------------------
D----3-4-3-----------------3-4-3---------
A--4-------4-------------4-------4-------
E-----------------------------------------

      well she walked up to me and


G-------------------------------------------------
D----------------------------3-4-3--------3-4-3---
A----3-4-3-----------------4-------4----4-------4-
E--4-------4--------------------------------------

   asked me if I wanted to dance


G---------------------------------------------
D-----3-4-3---------------------------------
A---4-------4-------------------------3-4-3-
E-----------------------------------4-------4

   she looked kind of nice and so I said I might take the chance


G----------------------
D----3-4-3-------3-4-3--
A--4-------4---4-------4
E----------------------


chorus


G------------------------------
D-----------------------3-4-3--
A----1-2-1------------4-------4-
E--2-------2--------------------

   when we danced she held me tight
   then I walked her home that night


G---------------------------------------------------------------------------
D------------------------------------------------------3-4-3---------3-4-3--
A----1-2-1-----------------3-4-3---------------------4-------4-----4-------4-
E--2-------2-------------4-------4-------------------------------------------

   the stars above were shining bright and then she kissed me


bridge

     (Gb)She kissed me in a way I'd never been kissed be(Db)fore
     (Ab)She kissed me in a way that I wanted to be kissed for ever (Eb)more


verse (doing this from memory, sorry, can't remember the lyrics)

chorus

verse; rhythym   solo; lead guitar
   
chorus, just keep repeating the riff on Db to fade
Komentari
Još nema komentara