Kiss

Murder In High Heels

by: Danijel

Pronađi akord!

Ne znaš kako odsvirati neki od akorda pjesmi Murder In High Heels? Upiši akord u tražilicu i saznaj!

Traženi akord će se prikazati ovdje

Od istog izvođača

Pregledano 823 puta
Pregledano 887 puta
Pregledano 809 puta
Pregledano 1106 puta
Pregledano 1371 puta
Trebaš ritam za ovu pjesmu? Pronađi ga ovdje
------------------------------------------------------------------------------
----------------------3--------------------------3--------3-------------------
----------------------2--2-----------------------2--2--2--2--2--2-------------
----------2-----------0--2-----------2-----------0--2--2--0--2--2-------------
-------------------------0--------------------------0--0-----0--0-------------
-0--0--3-----3--0--0--------0--0--3-----3--0--0-------------------------------


------------------------------------------------------------------------------
----------------------3-------------------------------------------------------
----------------------2--2--------------------------2-------------------------
----------2-----------0--2-----------2--------------2-------------------------
-------------------------0--------------------------0-------------------------
-0--0--3-----3--0--0--------0--0--3-----3--0--0--3----------------------------


------------------------------------------------------------------------------
----------------------3--------------------------3--------3-------------------
----------------------2--2-----------------------2--2--2--2--2--2-------------
----------2-----------0--2-----------2-----------0--2--2--0--2--2-------------
-------------------------0--------------------------0--0-----0--0-------------
-0--0--3-----3--0--0--------0--0--3-----3--0--0-------------------------------


------------------------------------------------------------------------------
----------------------3-------------------------------------------------------
----------------------2--2--------------------------2-------------------------
----------2-----------0--2-----------2--------------2-------------------------
-------------------------0--------------------------0-------------------------
-0--0--3-----3--0--0--------0--0--3-----3--0--0--3----------------------------


------------------------------------------------------------------------------
----------------------3--------------------------3----------------------------
----------------------2--2-----------------------2--2-------------------------
----------2-----------0--2-----------2-----------0--2-------------------------
-------------------------0--------------------------0-------------------------
-0--0--3-----3--0--0--------0--0--3-----3--0--0-------------------------------


-------3----------------------------------------------------------------------
-------3--3--3-----------------------3----------------------------------------
-------0--2--2-----------------------2--2-------------------------------------
-2--2--x--0--0-----------------2--2--0--2-------------------------------------
-2--2--x--------7--8--10--10b--2--2-----0-------------------------------------
-0--0--3-----------------------0--0-------------------------------------------


-3--3--3--2--2--2-------------------------------------------------------------
-3--3--3--3--3--3-------------------------------------------------------------
-0--0--0--2--2--2-------------------------------------------------------------
-x--x--x--0--0--0-------------------------------------------------------------
-x--x--x----------------------------------------------------------------------
-3--3--3----------2p0-2p0-2p0-0-0-0-0-0p2p0-2p0-0-0-0-0-0p2p0-2p0-2p0-0-0-0-0-


-3--3--3--2--2--2--3--3--3--2--2--2--3--3--3--2--2--2--3--3--3----------------
-3--3--3--3--3--3--3--3--3--3--3--3--3--3--3--3--3--3--3--3--3----------------
-0--0--0--2--2--2--0--0--0--2--2--2--0--0--0--2--2--2--0--0--0--2-------------
-x--x--x--0--0--0--x--x--x--0--0--0--x--x--x--0--0--0--2--2--2--2-------------
-x--x--x-----------x--x--x-----------x--x--x-----------3--3--3--0-------------
-3--3--3-----------3--3--3-----------3--3--3----------------------------------
Komentari
Još nema komentara